Saves The Day - Nightengale Chords & Tabs

 

Nightengale Chords & Tabs

Saves The Day Chords & Tabs

Version: 2 Type: Tab 0 ratings
1 star 2 stars 3 stars 4 stars 5 stars
comments

Nightengale Tab

Song: Nightengale
Band: Saves the DAY
CD: Stay as you are=20

This is absolutely the best song off of the best album in the world, so =
if you don't have this cd drop everything and go buy it, =
NOWNOWNOWnownoW!!!!

standard tuning . . .

verses (by the way, I didn't show rhythm=20

cause I'm lazy and cause it's easy to do)

e---|-0-|---|---|----0-|--------|----0-|-------|
b---|-0-|---|---|----0-|--------|----0-|-------|
g---|-1-|-4-|---|----1-|-4------|----1-|-4-----\
d-6-|-2-|-4-|-4-|-6--2-|-4--9-9-|-6--2-|-4--4--|
a-6-|-2-|-2-|-4-|-6--2-|-2--7-6-|-6--2-|-2--4--|
E-4-|-0-|---|-2-|-4--0-|--------|-4--0-|----2--|



thingamajigger after the verse...

e-----|-----|-----|------|
b-----|-----|-----|------|
g-----|-----|-----|------|
d--4--|--9--|--6--|--9---|
a--2--|--7--|--4--|--7---|
e-----|-----|-----|------|
palm mute ................

THEN repeat both of these patterns
and NOW comes the REALLY fun part!!!! yippeee!!
[ Tab from: http://www.guitartabs.cc/tabs/s/saves_the_day/nightengale_tab_ver_2.html ]
e-------------------------------|-------------|-------------|
b-------------------------------|----2h4-2-0--|-------------|
g-------------------------3-----|-4--4--------|----1h2-1----|
d------------4---------4-----4--|-4-----------|-2--2-----2--|
a---------2-----2---------------|-2-----------|-2-----------|
e-0--2-4-----------2------------|-------------|-0-----------|
(Repeat the last 2 measures)



and finally, the song reaches its beautiful ending by doing this.

e------------------------------|--------------------------|
b------------------------------|------------0-------------|
g------------------------3-----|---------1----------------|
d----------4----------4-----4--|-----2--------------------\
a-------2-----2----------------|-------------------------|
e-0-2-4-----------2------------|-0------------------------|



After ".is released into my life." a 2nd guitar plays this.
e--------------------|-0--|
b--------------------|-0--|
g--(pick slide)------|-1--|
d---------------6--4-|-2--|
a---------------6--4-|-2--|
e---------------4--2-|-0--|

Both keep repeating forever until the song ends, so I guess it really =
isn't forever, but it could be, that is, if the band decided not to end =
the song, ......, neways.

well, in the words of an annoying little pig, that's all folks!!!

for a good time, write to farbeyondkrazy@yahoo.com
Comments