Saves The Day - Nightengale Chords & Tabs

 

Nightengale Chords & Tabs

Saves The Day Chords & Tabs

Version: 1 Type: Tab 0 ratings
1 star 2 stars 3 stars 4 stars 5 stars
comments

Nightengale Tab

standard tuning

This song is pretty easy to play and it sounds good too
I'm pretty sure that this tab is right so here it is 

|---------------------------------------|
|---------------------------------------|
|---------------------------------------|
|---------4h6------------4-2-1----------|
|-----------------2---------------------|
|-0----4----------0---------------------|
[ Tab from: http://www.guitartabs.cc/tabs/s/saves_the_day/nightengale_tab.html ]
  Verse
|---------------------------------------|
|---------------------------------------|
|---------------------------------------|
|--2-----6-----2-----6-----2---6---4----|
|--2-----6-----2-----6-----2---6---4----|
|--0-----4-----0-----4-----0---4---2----|

  Chorus
|---------------------------------------|
|---------------------------------------|
|------4---------------------4----------|
|--2---4---4----6--4----2----4---4--4--4|
|--2---2---4----6--4----2----2---4--2--4|
|--0-------2----4--2----0--------2--4--2|

|---------------------------------------|
|---------------------------------------|
|-------4----------------------4--------|
|--2----4----4----6--4----2----4----4---|
|--2----2----4----6--4----2----2----4---|
|--0---------2----4--2----0---------2---|
Comments