Saves The Day - Monkey Chords & Tabs

 

Monkey Chords & Tabs

Saves The Day Chords & Tabs

Version: 1 Type: Tab 0 ratings
1 star 2 stars 3 stars 4 stars 5 stars
comments

Monkey Tab

   
I screwed up on the last one I realized so now I must correct it. Once again,
it's the Monkey solo from the new Saves the Day CD In Reverie. No one else would
tab it so I figured it out myself and I thought I'd share the wealth. So, you can
ignore the last one even though someone gave it 4 stars.

Saves the Day-Monkey (Solo)

"Just fall out and get in line.... Like All the Good Soldiers do-oooooo......" leads into.....

Part 1 (Heavy Distortion)
[ Tab from: http://www.guitartabs.cc/tabs/s/saves_the_day/monkey_tab.html ]
e
B--5h7-5----5h7---------5------------------------------
G--------7-6----7-6-4-6---7-6--------------------------
D-----------------------------7------------------------
A---------------------------------4/7--9/11------------
E------------------------------------------------------

Part 2
e----------------------------------------------
B----------------------------------------------
G------------------------------------4/7-9/11*-
D----------------------------------------------
A-2--4--2--4-2-0---2--4-2-4-2-0----------------
E-----------------1----------------------------

*=let ring
/=slide up
Comments