Saves The Day - Hold Chords & Tabs

 

Hold Chords & Tabs

Saves The Day Chords & Tabs

Version: 2 Type: Tab 0 ratings
1 star 2 stars 3 stars 4 stars 5 stars
comments

Hold Tab

--------------------------------------------------------
		HOLD - Saves the Day
--------------------------------------------------------

DROP D TUNING!!

By:Joe Stulpin

e|-----------------------------------------------------|
B|-----------------------------------------------------|
G|-----------------------------------------------------|
D|--4--33--44--44--44--33--6868999---------------------|
A|--4--44--66--22--44--44--6868999---------------------|
E|--4--------------44------6868999---------------------|
[ Tab from: http://www.guitartabs.cc/tabs/s/saves_the_day/hold_tab_ver_2.html ]
Pre-chorus
e|-----------------------------------------------------|
B|-----------------------------------------------------|
G|-----------------------------------------------------|
D|-----------------------------------------------------|
A|--6666--9999-----------------------------------------|
E|--6666--9999-----------------------------------------|

Chorus
e|-----------------------------------------------------|
B|-----------------------------------------------------|
G|--------4--------------4--6--------------------------|
D|--4--3--4--4--6--4--8--4--6--------------------------|
A|--4--4--2--4--4--6--8--2--4--------------------------|
E|--4--------4--------8--------------------------------|

The second verse has a 12-string play this along with 
the other part ...
e|-----------------------------------------------------|
B|--77-66--44-22--77-66-46467--------------------------|
G|-----------------------------------------------------|
D|-----------------------------------------------------|
A|-----------------------------------------------------|
E|-----------------------------------------------------|

========================================================
Comments