Saves The Day - Handsome Boy Chords & Tabs

 

Handsome Boy Chords & Tabs

Saves The Day Chords & Tabs

Version: 2 Type: Tab 0 ratings
1 star 2 stars 3 stars 4 stars 5 stars
comments

Handsome Boy Tab

Band: Saves The Day
Song: Handsome Boy
Tune: Drop D (DADGBe)
Tabbed By: tectactoe

======================================
Intro (Distortion, Very Low Volume)

e|--------------------------------------|
B|--------------------------------------|
G|----------------------------SLOWLY----|
D|---8-----8-----8-----8~--TURN VOLUME--|
A|--8-8---8-8---8-8----8~-------UP------|
E|-8---8-8---8-8---8---8~---------------|

======================================
Verse (Distortion)

    I said that boy's...
e|------------------------------------------------|
B|------------------------------------------------|
G|------------------------------------------------|
D|-88888888-10101010-6666-88888888-10101010-6666--|
A|-88888888-10101010-6666-88888888-10101010-6666--|
E|-88888888-10101010-6666-88888888-10101010-6666--|

    It's hard to look...                     There's just...
e|-----------------------------------|    |--------|
B|-----------------------------------|    |-----P--|
G|-----------------------------------|    |-----A--|
D|-888-88-888-88-101010-1010-666-66--| x2 |-8---U--|
A|-888-88-888-88-101010-1010-666-66--|    |-8---S--|
E|-888-88-888-88-101010-1010-666-66--|    |-8---E--|
pm ...    ...     . . .      ...
[ Tab from: http://www.guitartabs.cc/tabs/s/saves_the_day/handsome_boy_tab_ver_2.html ]
   smile, he looks so nice...               me, I wouldn't look bad...
e|---------------------------------------|--------------------------------------|
B|---------------------------------------|--------------------------------------|
G|---------------------------------------|--------------------------------------|
D|-10101010-6666-88888888-10101010-6666--|-88888888-11111111-88888888-11111111--|
A|-10101010-6666-88888888-10101010-6666--|-88888888-11111111-88888888-11111111--|
E|-10101010-6666-88888888-10101010-6666--|-88888888-11111111-88888888-11111111--|
pm                                                  ........

   Rhythm Guitar (0:40)
e|-------------------------|    |----------------------|
B|-------------------------|    |----------------------|
G|-------------------------|    |----------------------|
D|-10101010-8888-11111111--| x3 |-10101010-8888-1~--1--|
A|-10101010-8888-11111111--|    |-10101010-8888-1~--1--|
E|-10101010-8888-11111111--|    |-10101010-8888-1~--1--|

   Lead Guitar (0:40)
e|--------|    |----------------------|    |--------|    |---------------------|
B|-4-3----|    |-6-4-------4-6-4------|    |-4-3----|    |---------------------|
G|-----3--|    |-----7-5-7-------7-3--|    |-----3--|    |---------------------|
D|--------| x4 |----------------------| x1 |--------| x4 |---------------1~-1--|
A|--------|    |----------------------|    |--------|    |-4h5555h6-5550-1~-1--|
E|--------|    |----------------------|    |--------|    |---------------1~-1--|
Comments