Saves The Day - Handsome Boy Chords & Tabs

 

Handsome Boy Chords & Tabs

Saves The Day Chords & Tabs

Version: 1 Type: Tab 0 ratings
1 star 2 stars 3 stars 4 stars 5 stars
comments

Handsome Boy Tab

-------------------------------------------------------------------------------
                             HANDSOME BOY - Saves The Day
-------------------------------------------------------------------------------
Added By MIkhailo


Uh... pretty easy.  D tune your guitar

It goes somewhat like this....
E|------------------|
B|------------------|
G|----3---3---3---3-|
D|---3-3-3-3-3-3--3-|
A|--1---1---1-----1-|
E|------------------|
[ Tab from: http://www.guitartabs.cc/tabs/s/saves_the_day/handsome_boy_tab.html ]
I said "that boy's handsome".........
E|------------------------------|
B|------------------------------|
G|---333333333333-55555---------|
D|---333333333333-55555-1111111-|
A|---111111111111-33333-1111111-|
E|----------------------1111111-|

            There's Just!..........  Something about his smile..
E|--------------------------------------------------------------------------|
B|--------------------------------------------------------------------------|
G|---------3------------------5555555---------333333333333-5555555----------|
D|---------3------------------5555555-1111111-333333333333-5555555-11111111-|
A|---------1------------------3333333-1111111-111111111111-3333333-11111111-|
E|------------------------------------1111111----------------------11111111-|

Then do F to D# for 2 bars.....  Then C, F, D# until the end.

------------------------------------------------------------------------------
Comments