Saves The Day - Freakish Chords & Tabs

 

Freakish Chords & Tabs

Saves The Day Chords & Tabs

Version: 3 Type: Tab 0 ratings
1 star 2 stars 3 stars 4 stars 5 stars
comments

Freakish Tab

FREAKISH - Saves The Day

By:Danny Bligh (hecklerdanny@aol.com)
 
here is the correct way to play this song. the requests i've been getting for
this song have been massive, so i've decided to just post it on here. here you 
go. as always, if you have any corrections (which you shouldnt) or comments or
whatever, feel free to email me at the above adress. you can also find my correct
tabs for "at your funeral" "a drag in d flat", "sell my old clothes", and i also 
plan on posting "nightingale", "shoulder to the wheel" and "See you" along with
this one. have fun with it!

*note..there are obviously 2 guitars in this song, but im gonna put them in one,
so you can play it on one guitar and you would never know the difference.

intro/verse
e|---------------------------------------------------------------------------|
B|--------------------4--2--4------------------------------------------------|
G|--4-----4--4-----4--4--------3-----3---------------------------------------|
D|--6--6-----x--4-----4--------4--4------------------------------------------|
A|--6--------2-----------------4---------------------------------------------|
E|-----------0-----------------2---------------------------------------------|

playing this for the "rendering me freaking and dazed...." part.
e|---------------------------------------------------------------------------|
B|-----------11--12----------------------------------------------------------|
G|------------x---x----------------------------------------------------------|
D|--9--9---9--8---9--9--9--9--9----------------------------------------------|
A|--6--7--11--9---9--6--7--8--7----------------------------------------------|
E|---------------------------------------------------------------------------|
[ Tab from: http://www.guitartabs.cc/tabs/s/saves_the_day/freakish_tab_ver_3.html ]
chorus
e|---------------------------------------------------------------------------|
B|---------------------------------------------------------------------------|
G|--4--4--x--4--3--3--x--6--4--4--x--4--6--4--x--3--4------------------------|
D|--4--4--x--4--4--4--x--4--6--6--x--x--x--x--x--x--4------------------------|
A|--2--2--x--2--x--x--x----(6)----x--2--4--2--x--2--2------------------------|
E|--------------2--2--x--------------0-----0-----0---------------------------|

interlude
e|--0------------------------------------------------------------------------|
B|--0----(0)-----------------------------------------------------------------|
G|--1--4--3------------------------------------------------------------------|
D|--2--6--4------------------------------------------------------------------|
A|--2--6--x------------------------------------------------------------------|
E|-----4--2------------------------------------------------------------------|

and finally, play this little riff durring the chorus after the interlude,
where it's just the guitar and vocals.
e|---------------------------------------------------------------------------|
B|--7h4--7h4-----9--7--7h4--7h4----------------------------------------------|
G|------------4------------------4--6--4--3(bend up and back down)-----------|
D|------------------------------------------------------------------4--------|
A|---------------------------------------------------------------------------|
E|---------------------------------------------------------------------------|

well that should do it. also look for my new tabs by saves the day..
if a part of this song sounds wrong than double check the tab for that part,
because there are a lot of weird fingerings and the likes. have fun.
Comments