Saves The Day - Certain Tragedy Chords & Tabs

 

Certain Tragedy Chords & Tabs

Saves The Day Chords & Tabs

Version: 1 Type: Bass Tab

Certain Tragedy Bass Tab

Certain Tragedy
by Saves the Day
tabbed by Adam
http://ebenrocks.8m.com

Verse 1
G|----------------------------------------| 
D|----------------------------------------| 
A|----4>-------4>-------6>-4>-------------|  
E|-44----2>-44----2>-44-------66-66-22-2--|  

G|------------------------------3-6-5-------------------| 
D|----------------------------6-------6-4>--------------| 
A|----4>-------4>-------6>-4>----------------4----------|  
E|-44----2>-44----2>-44--------------------6---6-44-2>--| 

Chorus
G|-------------------------------------------------------------| 
D|-------------------------------------------------------------| 
A|-4>----6>----1-3-4>----6>----1-3-4>----6>-999-8--4>----6>----|  
E|----2>----2>--------2>----2>--------2>--------------2>----2>-|
[ Tab from: http://www.guitartabs.cc/tabs/s/saves_the_day/certain_tragedy_btab.html ]
Verse 2
G|-----------------------------------------------------| 
D|-----------------------------------------------------| 
A|----4>-------4>-------6>-4>--------------------------|  
E|-44----2>-44----2>-44-------66-66-22-2---666-444-222-| 

Chorus 2
G|---------------------------------------------------------------------------------| 
D|---------------------------------------------------------------------------3-1---| 
A|---3---4>----6>----1-3-4>----6>----1-3-4>----6>-999-8--4>----6>--------1-4-----4-|  
E|-4---4----2>----2>--------2>----2>--------2>--------------2>----2>-2-4-----------|

Bridge
G|---------------------------| 
D|---------------------------| 
A|-1>-----------------4>-----|  
E|----4>-2>--1>-2>-4>--------|

Solo- Play Verse 1
End- Play verse 1, then let the F# ring