Saves The Day - At Your Funeral Chords & Tabs

 

At Your Funeral Chords & Tabs

Saves The Day Chords & Tabs

Version: 3 Type: Tab 0 ratings
1 star 2 stars 3 stars 4 stars 5 stars
comments

At Your Funeral Tab

   
-------------------------------------------------------------------------------
			AT YOUR FUNERAL - Saves the Day
-------------------------------------------------------------------------------
tabbed by:Andrew Mikus
email:punk_sk8ter69@hotmail.com
artist: saves the day

Intro
e|---------------------------------------------------------------------------|
B|---------------------------------------7-----------------------------------|
G|-------------------------------------7-------------------------------------|
D|--12~-11~----5-----4/---12~-11~-----5--------4-5-7-------------------------|
A|---------------------------------------------------------------------------|
E|-----------0----3--------------0----------3--------------------------------|

    D    A                             A    Em    Bm   A
e|-(5)--(5)----------------------------5-----7----7---5----------------------|
B|--7----5------------7----------------5-----8----7---5----------------------|
G|--7----6----------7-----------7------6-----9----7---6----------------------|
D|--7----7--------5---------4-7--------7-----9----9---7----------------------|
A|-(5)---7-----------------------------7-----7----9---7----------------------|
E|-(5)--(5)----0---------3-------------5-----7----7---5----------------------|


[ Tab from: http://www.guitartabs.cc/tabs/s/saves_the_day/at_your_funeral_tab_ver_3.html ]
G       D          A          G         D   A
   And at your funeral I will sing the requiem


Verse

D  A  E  G ...

                  A                   Em                 Bm  A         
... Or would you burn up before the water filled your lungs 


You can use G instead of Bm if you cant do that cord... but its good practice
to use those barre chords.  


Ending lick

(p means to pull off)

e|---------------------------------------------------------------------------|
B|-12p10---------------------------------------------------------------------|
G|-------11--9------9--------------------------------------------------------|
D|--------------12----12--11-------------------------------------------------|
A|---------------------------------------------------------------------------|
E|---------------------------------------------------------------------------|

e|---------------------------------------------------------------------------|
B|---------------------------------------------------------------------------|
G|---------------------------------------------------------------------------|
D|---------------------------------------------------------------------------|
A|---------------------------------------------------------------------------|
E|---------------------------------------------------------------------------|

-------------------------------------------------------------------------------
Comments