Saves The Day - At Your Funeral Chords & Tabs

 

At Your Funeral Chords & Tabs

Saves The Day Chords & Tabs

Version: 1 Type: Bass Tab 0 ratings
1 star 2 stars 3 stars 4 stars 5 stars
comments

At Your Funeral Bass Tab

At your funeral - Saves the day
Tabbed by Josh (sumpunk87@expn.com)

Intro- this is a complete guess it sound right but Im not sure if there is bass in there.  
The bass is not mixed in good on this whole song!

This song will be become the anthem of 		your underground 
G----------------------------------------------------------------------------
D---12-----------------12-----------------12-12-12------------------1212-12-
A----------------------------------------------------------------------------
E----------------------------------------------------------------------------

Your two flours down getting high in the back room 
G----------------------------------------------------------------------------
D-12--------------------12-----------12-12-12-12-12-12-12-12-----------------
A----------------------------------------------------------------------------
E----------------------------------------------------------------------------

If I flooded out your house do you think youd make it out? 
G----------------------------------------------------------------------------
D-12------------------------12----------12-12-12-12-12-12-12-12-12-----------
A----------------------------------------------------------------------------
E----------------------------------------------------------------------------

Would you burn up before the water fills your lungs?
G----------------------------------------------------------------------------
D-12----------------12---------------12----------------12-12-----------------
A----------------------------------------------------------------------------
E----------------------------------------------------------------------------

And at your funeral I will sing the requiem
G----------------------------------------------------------------------------
D----------------------------------------------------------------------------
A-5------5-5--------5-------------5----5------5------------------------------
E----------------------------------------------------------------------------


Verse 1
  
  This  song  will  become  the  anthem  of  your underground
G|--------------------------------------------------------------------------| 
D|--------------------------------------------------------------9-7---------| 
A|5-5-55--5-5-55----0-0-00-5-4---4----7-7-77--7-7-77---------------9-7-5----| 
E|-----------------------------7------------------------3-3-33-----------7-5| 

  Your  two  floors  down  getting  high  in  the  back  room
G|--------------------------------------------------------------------------| 
D|--------------------------------------------------------------------------| 
A|5-5-55--5-5-55----0-0-00-5-4---4----7-7-77--7-7-77------------------5-7-5-| 
E|-----------------------------7------------------------3-3-33----5-7-------| 

  If I flood out your house do you think youd make it out?
G|--------------------------------------------------------------------------| 
D|--------------------------------------------------------------------------| 
A|5-5-55--5-5-55----0-0-00-5-4---4----7-7-77--7-7-77------------------------| 
E|-----------------------------7------------------------3-3-33--3-3-33------| 

[ Tab from: http://www.guitartabs.cc/tabs/s/saves_the_day/at_your_funeral_btab.html ]
  Would you burn up before the water fills your lungs?
G|--------------------------------------------------------------------------| 
D|------------9-11-12-11-9-11----9h11-9h11-12-11----------------------------| 
A|------------------------------------------------0>------------------------| 
E|5>----0>------------------------------------------------------------------| 


Chorus

  And   at   your   funeral   I   will   sing  the  requiem
G|--------------------------------------------------------------------------| 
D|--------------------------------------------------------------------------| 
A|---------5-5-5----0-0-0--0-0--------5-7-7-7----5-5-5----0-----------------| 
E|3-3-3---------------------------5/7---------------------------------------| 

  I would offer you my hand it would hurt too much to watch you die
G|--------------------------------------------------------------------------| 
D|--------------------------------------------------------------------------| 
A|----------5-5-5------0-0-0--0-0-------------5-7-7-7----5-5-5----0---------| 
E|3-3-3------------------------------5/7------------------------------------|


Verse 2

  And  you  can  beet when we mourn the death of you that night
G|--------------------------------------------------------------------------| 
D|--------------------------------------------------------------9-7---------| 
A|5-5-55--5-5-55----0-0-00-5-4---4----7-7-77--7-7-77---------------9-7-5----| 
E|-----------------------------7------------------------3-3-33-----------7-5| 

  That  Ill  lay  on the dinner  table  and I will  be the pig
G|--------------------------------------------------------------------------| 
D|--------------------------------------------------------------------------| 
A|5-5-55--5-5-55----0-0-00-5-4---4----7-7-77--7-7-77------------------5-7-5-| 
E|-----------------------------7------------------------3-3-33----5-7-------|

  With the apple in your mouth the food that celebrates your end
G|--------------------------------------------------------------------------| 
D|------------9-11-12-11-9-11----9h11-9h11-12-11----------------------------| 
A|------------------------------------------------0>------------------------| 
E|5>----0>------------------------------------------------------------------|

Chorus

  And   at   your   funeral   I   will   sing  the  requiem
G|--------------------------------------------------------------------------| 
D|--------------------------------------------------------------------------| 
A|---------5-5-5----0-0-0--0-0--------5-7-7-7----5-5-5----0-----------------| 
E|3-3-3---------------------------5/7---------------------------------------| 

  I would offer you my hand it would hurt too much to watch you die
G|--------------------------------------------------------------------------| 
D|--------------------------------------------------------------------------| 
A|----------5-5-5------0-0-0--0-0-------------5-7-7-7----5-5-5----0---------| 
E|3-3-3------------------------------5/7------------------------------------|

Chorus

  And   at   your   funeral   I   will   sing  the  requiem
G|--------------------------------------------------------------------------| 
D|--------------------------------------------------------------------------| 
A|---------5-5-5----0-0-0--0-0--------5-7-7-7----5-5-5----0-----------------| 
E|3-3-3---------------------------5/7---------------------------------------| 

  I would offer you my hand it would hurt too much to watch you die
G|--------------------------------------------------------------------------| 
D|--------------------------------------------------------------------------| 
A|----------5-5-5------0-0-0--0-0-------------5-7-7-7----5-5-5----0---------| 
E|3-3-3------------------------------5/7------------------------------------|

Ending I just hit D (a-5 or open D or even d-12) whenever all the intruments play
Comments