Saves The Day - As Your Ghost Takes Flight Chords & Tabs

 

As Your Ghost Takes Flight Chords & Tabs

Saves The Day Chords & Tabs

Version: 1 Type: Tab 0 ratings
1 star 2 stars 3 stars 4 stars 5 stars
comments

As Your Ghost Takes Flight Tab

AS YOUR GHOST TAKES FLIGHT - Saves the Day

By: Pat, par182@hotmail.com
   
This is the best i could do, and it might not all be 100% right, but 
its sounds pretty good, if you think there are some mistake and you know how 
to correct them, then email me.  *Note* This song has 2 guitars in it, but i 
only tabed it for one most of the time, but just listen to the song, and you 
can figure out when you need 2 guitars.  Enjoy.

/ = Slide up
^ = Vibrato
~ = Let ring

VERSE 1 (1x)  
e|---------------------------------------------------------------------------|
B|---------------------------------------------------------------------------|
G|---------------------------------------------------------------------------|
D|--6-6---1---4---2-2---1-2-----4-4--1---2---2-2---1-7-4---------------------|
A|--6-6-----2-----2-2-------4---4-4----4-----2-2-----------------------------|
E|--4-4-----------0-0-----------2-2----------0-0-----------------------------|

e|---------------------------------------------------------------------------|
B|---------------------------------------------------------------------------|
G|---------------------------------------------------------------------------|
D|--6-6--x-x---1---4---2-2--x-x---1-2-----4-4--x-x---1-------2-2/33/55-------|
A|--6-6--x-x-----2-----2-2--x-x-------4---4-4--x-x-----4-2---2-2/33/55-------|
E|--4-4--x-x-----------0-0--x-x-----------2-2--x-x-----------0-0/11/33-------|
							     
CHORUS 1 (4x)
e|---------------------------------------------------------------------------|
B|---------------------------------------------------------------------------|
G|--------------------4-4-4-4-4-4-4-4----------------------------------------|
D|--6-6-6-6----0-0----4-4-4-4-4-4-4-4----------------------------------------|
A|--6-6-6-6----0-0----2-2-2-2-2-2-2-2----------------------------------------|
E|--4-4-4-4----2-2-----------------------------------------------------------|

VERSE 2 (1x)
e|---------------------------------------------------------------------------|
B|---------------------------------------------------------------------------|
G|---------------------------------------------------------------------------|
D|--6-6--6-6---1---4---2-2--2-2---1-2-----4-4--4-4---1-------2-2--2-2---1-7-4|
A|--6-6--6-6-----2-----2-2--2-2-------4---4-4--4-4-----4-2---2-2--2-2--------|
E|--4-4--4-4-----------0-0--0-0-----------2-2--2-2-----------0-0--0-0--------|
[ Tab from: http://www.guitartabs.cc/tabs/s/saves_the_day/as_your_ghost_takes_flight_tab.html ]
e|---------------------------------------------------------------------------|
B|---------------------------------------------------------------------------|
G|---------------------------------------------------------------------------|
D|--6-6--6-6---1---4---2-2--2-2---1-7-4---4-4--4-4---1-------2-2/33/55-------|
A|--6-6--6-6-----2-----2-2--2-2-----------4-4--4-4-----4-2---2-2/33/55-------|
E|--4-4--4-4-----------0-0--0-0-----------2-2--2-2-----------0-0/11/33-------|

CHORUS 2 (4x)
e|---------------------------------------------------------------------------|
B|---------------------------------------------------------------------------|
G|--------------------4-4-4-4-4-4-4-4----------------------------------------|
D|--6-6-6-6----0-0----4-4-4-4-4-4-4-4----------------------------------------|
A|--6-6-6-6----0-0----2-2-2-2-2-2-2-2----------------------------------------|
E|--4-4-4-4----2-2-----------------------------------------------------------|
                        pm...........(ending the chorus)

BRIDGE (1x) You've become, a ghost........
e|---------------------------------------------------5^-0^----0^-------------|
B|---------------------------------------------------------0^----------4^-0^-|
G|-------------------------------------------------2^---------------2^-------|
D|--6-6~--2-2~---6-6~--2-2~---6-6~--2-2~---6~---4^---------------4^----------|
A|--6-6~--2-2~---6-6~--2-2~---6-6~--2-2~---6~--------------------------------|
E|--4-4~--0-0~---4-4~--0-0~---4-4~--0-0~---4~--------------------------------|

VERSE 3 (2x) Well its nothing But Dying......
e|---------------------------------------------------------------------------|
B|---------------------------------------------------------------------------|
G|---------------------------------------------------------------------------|
D|--4/6----6-6-6-6-6-6--2-2-2-2-2-2--4-4-4-4-4-4--2-2-2-2-2-2----------------|
A|--4/6----6-6-6-6-6-6--2-2-2-2-2-2--4-4-4-4-4-4--2-2-2-2-2-2----------------|
E|--2/4----4-4-4-4-4-6--0-0-0-0-0-0--2-2-2-2-2-2--0-0-0-0-0-0----------------|

(Guitar 2 accompanies VERSE 3 after 1x) 
e|---------------------------------------------------------------------------|
B|---------------------------------------------------------------------------|
G|---------13-13-13-13--9-9-9-9-9-9--11-11-11-11--9-9-9-9-9-9----------------|
D|----------x--x--x--x--x-x-x-x-x-x---x--x--x--x--x-x-x-x-x-x----------------|
A|---------11-11-11-11--7-7-7-7-7-7---9--9--9--9--7-7-7-7-7-7----------------|
E|---------------------------------------------------------------------------|

CHORUS-3 (Guitar 2 plays this with wah-wah)
e|---------------------------------------------------------------------------|
B|---------------------------------------------------------------------------|
G|--------------------4-4-4-4-4-4-4-4----------------------------------------|
D|--6-6-6-6----0-0----4-4-4-4-4-4-4-4----------------------------------------|
A|--6-6-6-6----0-0----2-2-2-2-2-2-2-2----------------------------------------|
E|--4-4-4-4----2-2-----------------------------------------------------------|

Thats It.  Hope if help.
Comments