Saves The Day - Anywhere With You Chords & Tabs

 

Anywhere With You Chords & Tabs

Saves The Day Chords & Tabs

Version: 4 Type: Tab 0 ratings
1 star 2 stars 3 stars 4 stars 5 stars
comments

Anywhere With You Tab

"Anywhere with You" by: Saves the Day
tabbed by: Carlin

To get into this here tuning we are dropping everything down a whole step (two frets) so
that EADGBe becomes DGCFAd and then the sixth string is gonna keep on dropping (like you
would drop D) to a C.  So we have CGCFAd.  OK, now you very well could tune it to open C
or to C6 tuning BUT I did it this way and spent a good amount of time on it so just give
it a go, it's worth trying out, trust me.

intro/chorus:
d--------------------(0)-<--this part of the chord------------------5---4--|
A--------------------(3)-<--isn't played the first time-------------5---3--|
F---------2--4--/-5--(5)-<--during the intro------------------------5---4--|
C--3------2--4--/-5---4---------------------------last two chords:--3---3--|
G--3------0--2--/-3---5----------------------------------------------------|
C--3--/5--------------0----------------------------------------------------|

(verses should be played with two guitars or it won't sound quite right)
verse 1 (guitar 1):
d---13--12--------------------------7--------------------------------------|
A---13--13--repeat till:--------------10----------10-10-10-10-10-10-/8-----|
F---13--12----------------------9---------9-------10-10-10-----------------|
C---------------------------10---------------10-/-12-12-12-----------------|
G--------------------------------------------------------------------------|
C--------------------------------------------------------------------------|

verse 1 (guitar 2):
d---10--12------------------5-~--------------------------------------------|
A---10--10------------------5-~-------(feedback)---------------------------|
F---10--10--repeat till:----5-~--------------------------------------------|
C--(12)(12)-----------------3-~--------------------------------------------|
G--------------------------------------------------------------------------|
C--------------------------------------------------------------------------|

chourus

verse 2 (guitar 1):
d---13--12------------13--12--10--8---------------7-----------------------------------|
A---13--13--repeat----13--13--12--10----------------10----------10-10-10-10-10-10-/8--|
F---13--12------------13--12--12--9-----------9---------9-------10-10-10--------------|
C------------------(   last time    )-----10---------------10-/-12-12-12--------------|
G-------------------------------------------------------------------------------------|
C-------------------------------------------------------------------------------------|
[ Tab from: http://www.guitartabs.cc/tabs/s/saves_the_day/anywhere_with_you_tab_ver_4.html ]
verse 2 (guitar 2):
d---10--12------------10--12--7--5--------5-~------------------12(13)-----------------|
A---10--10------------10--10--6--5--------5-~-----------------------------------------|
F---10--10--repeat----10--10--7--5--------5-~-----------------------------------------|
C--(12)(12)----------(12)(12)-------------3-~-----------------------------------------|
G------------------(    last time    )------------------------------------------------|
C-------------------------------------------------------------------------------------|


chorus

verse 3 (guitar 1)
   .....rake these chords downward....
d---13--12------------13--12--10--8---------------7--------------------------------------|
A---13--13--repeat----13--13--12--10----------------10----------10----10---------10--10--|
F---13--12------------13--12--12--9-----------9---------9-------10--------10-----9---10--|
C------------------(   last time    )-----10---------------10-/-12--12-------12--10--12--|
G----------------------------------------------------------------------------------------|
C----------------------------------------------------------------------------------------|

verse 3 (guitar 2)
  ....rake these chords downward....
d---10--8------------10--8--7--5----------------------------------------------------------|
A---9---8--repeat----9---8--6--5----------------------------------------------------------|
F---10--9------------10--9--7--5----------5---------------------5----------------5---5----|
C------------------(  last time  )--------5---------------------4----------------5---4----|
G-----------------------------------------3---------------------5----------------3---5----|
C-----------------------------------------------------------------------------------------|

chorus

end of chorus:
guitar 1:
d------------7----------------------------------------------------------------------------|
A--------10-----10-----10----------10---10--10--10--8-------------------------------------|
F--------9----------9--------------9----------------------into last chorus----------------|
C--------10------------------------10-----------------------------------------------------|
G-----------------------------------------------------------------------------------------|
C-----------------------------------------------------------------------------------------|
guitar 2:
d---5-------------------------------------------------------------------------------------|
A---5-----------------------5-------------------------------------------------------------|
F---5-----------------------5----------------------------{wiggle the string a little}-----|
C---3-----------------------4----------7----7---7---5---3-3-3-3-2-2-2-2-5-5-5-5-4-4-4-4---|
G---------------------------5----------^lead until end------------------------------------|
C-----------------------------------------------------------------------------------------|

end:
guitar 1:
d----5---------5---------|
A----5---------5---------|
F----5---------5---------|
C----3---------4---------|
G--------------5---------|
C------------------------|
guitar 2:
d-----------------------|
A-----------------------|
F-----------------------|
C----333333333-5555555--|
G-----------------------|
C-----------------------|

Alright, now is the tuning flawed?  Perhaps.  But the notes are right for sure so if you
 prefer a different tuning just use this and move the notes. Hope you enjoyed it.
Comments