Saves The Day - Anywhere With You Chords & Tabs

 

Anywhere With You Chords & Tabs

Saves The Day Chords & Tabs

Version: 3 Type: Tab 0 ratings
1 star 2 stars 3 stars 4 stars 5 stars
comments

Anywhere With You Tab

Intro and Chorus
E|----------------------------------------------------|
B|------------------------------------4-4-2-----------|
G|-------------------4444-------------4-4-3-----------|
D|-222--4/666-3/4444-3333--last time--2-2-2-----------|
A|-222--4/666-1/2222-4444-----------------------------|
E|-000--2/444-1/2222----------------------------------|
[ Tab from: http://www.guitartabs.cc/tabs/s/saves_the_day/anywhere_with_you_tab_ver_3.html ]
Verse 1 and 2
E|--9--7----------------------------9--7--6--4--------|
B|--8--7----------------last time---8--7--4--6--------|
G|--9--8---repeat 4x----------------9--8--4--4--------|
D|--8--9----------------------------8--9--4--6--------|
A|----------------------------------------------------|
E|----------------------------------------------------|

Verse 3
e|--9----7---------------last time---9---7---6---4----|
B|---8----7---repeat 4x---------------8---7---5---4---|
G|----9----8---------------------------9---8---6---4--|
D|----------------------------------------------------|
A|----------------------------------------------------|
E|----------------------------------------------------|
Comments