Saves The Day - All Im Losing Is Me Chords & Tabs

 

All Im Losing Is Me Chords & Tabs

Saves The Day Chords & Tabs

Version: 1 Type: Tab 0 ratings
1 star 2 stars 3 stars 4 stars 5 stars
comments

All Im Losing Is Me Tab

All I'm Losing Is Me
Saves The Day

not many people know about this band... they're my FAVORITE!
email me: SwissMiss986@hotmail.com



Intro
e|----------------------------------------------------------|
B|----------------------------------------------------------|
G|----------------------------------------------------------|
D|--11-11-11-11-11--11-11-11-11-11--7-7-7-7-7--7-7-7-7-7----|
A|---9--9--9--9--9---9--9--9--9--9--5-5-5-5-5--5-5-5-5-5/4--|
E|----------------------------------------------------------|

Verse1
e|----------------------------------|
B|----------------------------------|
G|----------------------------------|
D|----------------------------------|
A|--2~~~~~--7~~~~~--2~~~~~--7~~~~~--|
E|--0~~~~~--5~~~~~--0~~~~~--5~~~~~--|

Pre-Chorus
e|-------------------------|
B|-------------------------|
G|-------------------------|
D|--7-7/6-6\7--7-7/6-------|
A|--5-5/4-4\5--5-5/4--2-2--|
E|--------------------0-0--|

e|--------------------------------------|
B|--------------------------------------|
G|--6-6--7-7--9-9--11-11--13-13--14-14--|
D|--------------------------------------|
A|--4-4--5-5--7-7---9--9--11-11--12-12--|
E|--------------------------------------|

Chorus
e|-------------------------------|--------------------------|
B|-------------------------------|--------------------------|
G|-------------------------------|--------------------------|
D|-------------6--9-9-9-9-9--14--|-----------6--------------|
A|--7-7-7-7-7--4--7-7-7-7-7--12--|--7-7-7-7--4--4-4-4-4--2--|
E|--5-5-5-5-5--------------------|--5-5-5-5-----2-2-2-2--0--|
[ Tab from: http://www.guitartabs.cc/tabs/s/saves_the_day/all_im_losing_is_me_tab.html ]
e|--------------------|
B|--------------------|
G|--------------------|
D|--------------------|
A|--4-4-4-4--2-2-2-2--|
E|--2-2-2-2--0-0-0-0--|

Verse2
e|------------------------------------------------|
B|------------------------------------------------|
G|------------------------------------------------|
D|------------------------7-7-7-7-7--7-7-7-7-7----|
A|--4-4-4-4-4--4-4-4-4-4--5-5-5-5-5--5-5-5-5-5/4--|
E|--2-2-2-2-2--2-2-2-2-2--------------------------|

Bridge
e|--------------------|------------------------------------------------------|
B|--------------------|------------------------------------------------------|
G|--------------------|------------------------------------------------------|
D|--------------------|--7-7-7-7-7-7---------------7-7-7-7-7-7---------------|
A|--7~~--7-7-7-7-7-7--|--5-5-5-5-5-5--7-7-7-7-7-7--5-5-5-5-5-5--7-7-7-7-7-7--|
E|--5~~--5-5-5-5-5-5--|---------------5-5-5-5-5-5---------------5-5-5-5-5-5--|
         ....p.m....

Fill
e|--------------------------------|-----------------------|
B|--------------------------------|--------7--------------|
G|--7-7--6---------------6--------|--7--6-----9--7--6-----|
D|----------7-7----7--9-----9--7--|--------------------7--|
A|--------------------------------|-----------------------|
E|--------------------------------|-----------------------|

Outro
e|------------------------------------------------------|
B|------------------------------------------------------|
G|------------------------------------------------------|
D|--2~~~~~~--------------------2~~~~~~------------------|
A|--0~~~~~~--2~~~~~~--4~~~~~~--0~~~~~~--2~~~~~~--4~~~~--|
E|-----------0~~~~~~--2~~~~~~-----------0~~~~~~--2~~~~--|
Comments