Saves The Day - All Im Losing Is Me Chords & Tabs

 

All Im Losing Is Me Chords & Tabs

Saves The Day Chords & Tabs

Version: 1 Type: Bass Tab 0 ratings
1 star 2 stars 3 stars 4 stars 5 stars
comments

All Im Losing Is Me Bass Tab

   
Saves The Day - All I'm Losing Is Me

This is the BEST Saves The Day song, and i'm 100% positive this is correct,
(unlike the other tabs for this that claim to be right but are off by so much)
except for a few random scales that Eben likes to throw into his bass lines,
which aren't neccessary (but D'Amico is still the no. 1 bassist) for play.
Email me if you need something else of Saves The Day's tabbed:

ScorpDave@aol.com

Standard E, A, D, G Tuning

* = Let note ring

Main Verse(0:02)
G|-------------------------|
D|-------------------------|
A|------------55555-5555-54| x1
E|02022-02022--------------|

Fill (0:08)
G|------------------------|
D|------------------------|
A|------------55555-03455-| x1
E|02022-02022-------------|

Main Verse (0:14)
G|-------------------------|
D|-------------------------|
A|------------55555-5555-54| x3
E|02022-02022--------------|

Pre-Chorus (0:34)
G|-------------------------|
D|-------------------------|
A|------------55555-5-555-5| x1
E|02022-02022--------------|

Pre-Chorus (0:41)
G|------------------------|
D|------------------------|
A|7*-------5*-------7*----| x1
E|------------------------|

Pre-Chorus (0:51)
G|-----------------|
D|-----------------|
A|-5554--5-5554--2-| x1
E|-----------------|

Chorus (0:54)
G|---------------------------------|
D|-------2222----------------------|
A|0000-4-------0--000-0-4----------| x2
E|------------------------2222-0000|

Post-Chorus (1:07)
G|------------|
D|0-0-42-2-222|
A|------------| x1
E|------------|
[ Tab from: http://www.guitartabs.cc/tabs/s/saves_the_day/all_im_losing_is_me_btab.html ]
Verse (1:10)
G|------------|
D|------------|
A|------------| x1
E|02022-02022-|

Main Verse (1:14)
G|-------------------------|
D|-------------------------|
A|------------55555-5555-54| x3
E|02022-02022--------------|

Pre-Chorus (1:34)
G|-------------------------|
D|-------------------------|
A|------------55555-5-555-5| x1
E|02022-02022--------------|

Pre-Chorus (1:40)
G|------------------------|
D|------------------------|
A|7*-------5*-------7*----| x1
E|------------------------|

Pre-Chorus (1:50)
G|-----------------|
D|-----------------|
A|-5554--5-5554--2-| x1
E|-----------------|

Chorus (1:53)
G|---------------------------------|
D|-------2222----------------------|
A|0000-4-------0--000-0-4----------| x2
E|------------------------2222-0000|

Post Chorus (2:06)
G|-------------|
D|0-0-42-2-222-|
A|------------0| x1
E|-------------|

(Guitar plays Open A power chord)

Bridge (2:13)
G|-------------------------------------|
D|000000000076-------------000000000000|
A|------------0000600767677------------| x1
E|-------------------------------------|

Main Verse (2:22)
G|-------------------------|
D|-------------------------|
A|------------55555-5555-54| x4
E|02022-02022--------------|

Pre-Chorus (2:49)
G|---------------|
D|---------------|
A|7-77-77-7-7-7--| x1
E|---------------|

Chorus (2:52)
G|---------------------------------|
D|-------2222----------------------|
A|0000-4-------0--000-0-4----------| x2
E|------------------------2222-0000|

Concluding Verse (3:05)
G|-----------------------------------------|
D|0-0-42-2-222-----------------------------|
A|-------------------------5-5-5-7-7-7-----| x1
E|-------------2-2-2-0-0-0-------------2*--|
Comments