Save Ferris - Under 2 Chords & Tabs

 

Under 2 Chords & Tabs

Save Ferris Chords & Tabs

Version: 1 Type: Bass Tab 0 ratings
1 star 2 stars 3 stars 4 stars 5 stars
comments

Under 2 Bass Tab

Band: Save Ferris
Song: Under 21
Bassist: Bill Uechi
Tabbed by: James Bradley

It's all there, and I'm pretty sure it's 100%
accurate, you just have to put the parts
together.

> means strum

Intro:
G------------------------------------------|
D------------------------------------------|
A--3----------3-------------0-2------------|
E----3--1--------3---1----3----------------|

Verse:
G------------------------------------------|
D----2-5-----------------0-----------------|
A--3--------2-5-----0-3----4---------------|
E---------3-------1------------------------|

Other Verse Part:
G------------------------------------------|
D--------------0---------------------------|
A--3-3-----------4-------------------------|
E------3-3-1-1-----------------------------|
[ Tab from: http://www.guitartabs.cc/tabs/s/save_ferris/under_2_btab.html ]
Chorus:
G------------------------------------------|
D------------------------------------------|
A------------------------------------------|
E-1>-3>------------------------------------|

Bridge:
G------------------------------------------|
D------------------------------------------|
A--3-3-------------------------------------|
E------3-3--1-1-1-1------------------------|

*When it goes into the guitar solo, its the same as Other Verse Part.

Coming out of solo:
G------------------------------------------|
D------------------------------------------|
A----1>-1-2-3------------------------------|
E--1>--------------------------------------|

Ending:
G------------------------------------------|
D------------------------------------------|
A--3------3--------------------------------|
E----3-1>----------------------------------|
Comments