Save Ferris - Come On Eileen Chords & Tabs

 

Come On Eileen Chords & Tabs

Save Ferris Chords & Tabs

Version: 2 Type: Bass Tab 1 rating
1 star 2 stars 3 stars 4 stars 5 stars
comments

Come On Eileen Bass Tab

I'm pretty sure this is completly right. 
Not very hard to play, just practice a little. 
I added a line for 5 stringed guitars.
So when you own one, play those notes instead of the octave.. 

Enjoy!!

Intro:
                
G|-------------------------------------------------------------|
D|-------------------------------------------------------------|
A|-2-------11\6---------------2-2-2-2-2-2-2-2-/9-9-9-9-9-9-9-9-|
E|--------------------0----------------------------------------|

B|----------9\4-------5----------------------------------------|

G|-----------------------------------------------------------------|
D|-----------------------------------------------------------------|
A|-2-2-2-2-2-2-2-2-6-6-6-6-6-6-6-6-7-7-7-7-7-7-7-7-2-2-2-2---------|
E|---------------------------------------------------------2-2-2-2-|

B|-----------------4-4-4-4-4-4-4-4-5-5-5-5-5-5-5-5-----------------|

Verse:

G|---------------------3---------3---------------------------------|
D|---1-4-1---1-2-4-1-4---4-1-3-4---------------------1-4-1---------|
A|-2-------2---------------------------2-------0-1-2---------1-4-1-|   2x
E|---------------------------------0-4---4-0-4-------------2-------|

B|-----------------------------------------------------------------|

G|---------------------3---------3---------------------------------|
D|---1-4-1---1-2-4-1-4---4-1-3-4---------------------1-2-3-4-------|
A|-2-------2---------------------------2-------0-1-2-----------0-1-| 
E|---------------------------------0-4---4-0-4---------------4-----|

B|---------------------------------------------------4-5-6-7-------|

G|---------------------3---------3---------------------------------|
D|---1-4-1---1-2-4-1-4---4-1-3-4---------------------1-4-1---------|
A|-2-------2---------------------------2-------0-1-2---------1-4-1-| 
E|---------------------------------0-4---4-0-4-------------2-------|

B|-----------------------------------------------------------------|

Chorus:

G|--------------------------------------------------------------------------------------|
D|---1-4-1---1-2-4-1-1-1-1-1-1-1-1-2-2-2-2-2-2-2-2--------------------------------------|
A|-2-------2---------------------------------------2-2-2-2------------------------------|
E|---------------------------------------------------------2-2-2-2-2-2-2-2-/14-14-14-14-|

B|-----------------4-4-4-4-4-4-4-4-5-5-5-5-5-5-5-5--------------------------------------|

Slow Chorus: (play dead notes for the swing)

G|------------------------------------------------------------------|
D|-----------------6-6-----6-----6------------------4-4-------------|
A|-4-4-----4-----4-----6-8---6-8---6-6-----6-----6------4-6--44h6---|   
E|-----4-6---4-6-----------------------6-9---6-9--------------------|

B|------------------------------------------------------------------|

G|-----------------------------------------------------------~~
D|-----------------6-6-----6-----6------------------4-4------~~
A|-4-4-----4-----4-----6-8---6-8---6-6-----6-----6------4h6--~~   
E|-----4-6---4-6-----------------------6-9---6-9------------4~~

B|-----------------------------------------------------------~~

Intro:

G|-----------------------------------------------------------------|
D|-----------------------------------------------------------------|
A|-2-2-2-2-2-2-2-2-6-6-6-6-6-6-6-6-7-7-7-7-7-7-7-7-2-2-2-2---------|
E|---------------------------------------------------------2-2-2-2-|

B|-----------------4-4-4-4-4-4-4-4-5-5-5-5-5-5-5-5-----------------|

Verse:
[ Tab from: http://www.guitartabs.cc/tabs/s/save_ferris/come_on_eileen_btab_ver_2.html ]
G|---------------------3---------3---------------------------------|
D|---1-4-1---1-2-4-1-4---4-1-3-4---------------------1-4-1---------|
A|-2-------2---------------------------2-------0-1-2---------1-4-1-|   2x
E|---------------------------------0-4---4-0-4-------------2-------|

B|-----------------------------------------------------------------|

G|---------------------3---------3---------------------------------|
D|---1-4-1---1-2-4-1-4---4-1-3-4---------------------1-2-3-4-------|
A|-2-------2---------------------------2-------0-1-2-----------0-1-|   
E|---------------------------------0-4---4-0-4---------------4-----|

B|---------------------------------------------------4-5-6-7-------|

Chorus:

G|--------------------------------------------------------------------------------------|
D|---1-4-1---1-2-4-1-1-1-1-1-1-1-1-2-2-2-2-2-2-2-2--------------------------------------|
A|-2-------2---------------------------------------2-2-2-2------------------------------|
E|---------------------------------------------------------2-2-2-2-2-2-2-2-/14-14-14-14-|

B|-----------------4-4-4-4-4-4-4-4-5-5-5-5-5-5-5-5--------------------------------------|

Slow Chorus: (play dead notes for the swing)

G|------------------------------------------------------------------|
D|-----------------6-6-----6-----6------------------4-4-------------|
A|-4-4-----4-----4-----6-8---6-8---6-6-----6-----6------4-6--44h6---| 
E|-----4-6---4-6-----------------------6-9---6-9--------------------|

B|------------------------------------------------------------------|

G|------------------------------------------------------------------|
D|-----------------6-6-----6-----6------------------4-4-------------|
A|-4-4-----4-----4-----6-8---6-8---6-6-----6-----6------4h6---------|   
E|-----4-6---4-6-----------------------6-9---6-9------------4-------|

B|------------------------------------------------------------------|

G|---------------------------------------------------------------~~
D|-----------------6-6-----6-----6------------------4-4----------~~
A|-4-4-----4-----4-----6-8---6-8---6-6-----6-----6------4h6-----4~~
E|-----4-6---4-6-----------------------6-9---6-9------------4----~~

B|---------------------------------------------------------------~~

Intermezzo:

G|------------------------------------------------------------------|
D|---3-6-4---3-4-6-----------------4--------------------------------|
A|-4-------4-----------3---------3---1-2-3-4-2-1---4---------1-2-3--|
E|-----------------1-4---4-1-2-4-----------------4---1-2-3-4--------|

B|------------------------------------------------------------------|

G|------------------------------------------------------------------|
D|---3-6-4---3-4-6-----------------4--------------------------------|
A|-4-------4-----------3---------3---1-2-3-4-2-1---4---------1-2-3--| 
E|-----------------1-4---4-1-2-4-----------------4---1-2-3-4--------|

B|------------------------------------------------------------------|
  faster..

G|------------------------------------------------------------------|
D|---3-6-4---3-4-6-----------------4--------------------------------|
A|-4-------4-----------3---------3---1-2-3-4-2-1---4---------1-2-3--| 
E|-----------------1-4---4-1-2-4-----------------4---1-2-3-4--------|

B|------------------------------------------------------------------|
  faster..			     faster..

G|----------------------------------|
D|----------------------------------|
A|-4---------------6----------------|
E|---------4---------------22224444-|

B|----------------------------------|

End:

G|---------------------------------|
D|---------------------------------|
A|-4-4-4-4---------6-6-6-6---------|
E|---------4-4-4-4---------2-2-4-4-|  2x

B|---------------------------------|

G|---------------------------------~~
D|---------------------------------~~
A|-4-4-4-4---------6---------------~~
E|---------4-4-4-4-------2-----4---~~   

B|---------------------------------~~

Song ends with a fragment of the original song by Dexy's Midnight Runners.
Comments