Savatage - The Dungeons Are Calling Chords & Tabs

 

The Dungeons Are Calling Chords & Tabs

Savatage Chords & Tabs

Version: 1 Type: Tab 0 ratings
1 star 2 stars 3 stars 4 stars 5 stars
comments

The Dungeons Are Calling Tab

Savatage
The Dungeons Are Calling
The Dungeons Are Calling (1984)
INTRO:
-------------------------------------------------------------------
-------------------------------------------------------------------
-------------------------------------------------------------------
-------------------------------------------------------------------
-------------------------------------------------------------------
-------------------------------------------------------------------
[ Tab from: http://www.guitartabs.cc/tabs/s/savatage/the_dungeons_are_calling_tab.html ]
Directly after Intro play this riff which leads into the verses:
-------------------------------------------------------------------
-------------------------------------------------------------------
-9-9-9-9--9-9-9-9----7-8-------------------------------------------
-9-9-9-9--9-9-9-9----5-5-------------------------------------------
-9-7-7-9--9-7-9-7----5-5-------------------------------------------
-------------------------------------------------------------------
Main Riff: (Play after every line in the verse)
----------------------|----------------------|----------------------|
----------------------|----------------------|----------------------|
----------------------|----------------------|----------------------|
----------------------|----------------------|----2--2--------------|
-7-5-8-7-5---7-5-8-5--|-7-5-8-7-5---7-5-8-5--|----2--2--------------|
----------------------|----------------------|----2--0--------------|

"I cant escape . . . this den must be hell"
"Pleases are freedom . . . deny me in this cell"
-------------------------------------------------------------------
-------------------------------------------------------------------
----------------7-7------4-4/9-9-----------------------------------
----------------7-7------4-4/9-9-----------------------------------
----------------5-5------2-2/7-7-----------------------------------
-------------------------------------------------------------------

"I steal from my friends . . . victims of my pain"
"It's nearing the end    . . . I live like the dead"
--------------0------------0---2-----------------------------------
------------0--------------0---3-----------------------------------
--------4-0--------------6-0---4----x/--9-------------------------
------3----------------7-------4----x/--9-------------------------
----4----------------5---------2----x/--7-------------------------
--2-----------------0----------2-----------------------------------

-------------------------------------------------------------------
-------------------------------------------------------------------
-9-9-9-9--9-9-9-9----7-8-------------------------------------------
-9-9-9-9--9-9-9-9----5-5-------------------------------------------
-9-7-7-9--9-7-9-7----5-5-------------------------------------------
-------------------------------------------------------------------
Comments