Savatage - Sleep Chords & Tabs

 

Sleep Chords & Tabs

Savatage Chords & Tabs

Version: 2 Type: Tab 0 ratings
1 star 2 stars 3 stars 4 stars 5 stars
comments

Sleep Tab

Artist: SAVATAGE
Song: SLEEP
Album: EDGE OF THORNS (1993)
Written by: JON OLIVA, CRISS OLIVA, PAUL O'NEILL
Guitars played by: CRISS OLIVA (R.I.P.)

Acoustic Guitar
Standard Tuning

Intro
E||----------3--3----------|---------2----2--------|-----------0---------|
B||----------3--3----------|---------3----3--------|-----------0------3--|
G||----------0--0----------|--4------4----4--------|-----------0------0--|
D||-------0----------------|--4------4----4--4--5--|-----------2------0--|
A||------------------0--2--|--2------2-------------|--2--------2---------|
E||--3---------------------|-----------------------|--0--------0---------|


                                                                        

----0--------------0-----|-----------0-------3--|----3-----3----3--------|
-------3-----------------|-----------1-------1--|----1-----1----1--------|
----------0-----0--------|-----------0-------0--|----0-----0----0--5--4--|
-------------2-----2-----|-----------2-------2--|----2-----2----2--------|
----------------------2--|--3--------3----3-----|-------3----------------|
-------------------------|-----------0----------|------------------------|


                                                                          
------------2-------3--|----2----0----2----3--|
------------3-------3--|----3----3----3----3--|
--2----2----2-------2--|----2----2----2----2--|
--0---------0----0--0--|----0----0----0----0--|
-----------------------|----------------------|
-----------------------|----------------------|


Verse 1 (Hey, there you... do you care)

|-----------3--3----------|
|-----------3--3----------|
|----------0--0----------|
|-------0----------------|
|-------------------0--2--|
|---3---------------------|


                                                                        
---------2----2--------|-----------0---------|----0--------------0-----|
---------3----3--------|-----------0------3--|-------3-----------------|
--4------4----4--------|-----------0------0--|----------0-----0--------|
--4------4----4--4--5--|-----------2------0--|-------------2-----2-----|
--2------2-------------|--2--------2---------|----------------------2--|
-----------------------|--0--------0---------|-------------------------|


                                                                        
-----------0-------3--|----3-----3----3--------|------------2-------3--|
-----------1-------1--|----1-----1----1--------|------------3-------3--|
-----------0-------0--|----0-----0----0--5--4--|--2----2----2-------2--|
-----------2-------2--|----2-----2----2--------|--0---------0----0--0--|
--3--------3----3-----|-------3----------------|-----------------------|
-----------0----------|------------------------|-----------------------|


                                                                            
----2----0----2----3---|
----3----3----3----3---|
----2----2----2----2--|
----0----0----0----0--|
-----------------------|
-----------------------|


Chorus (So lay back... could just sleep)

|----------2--2--2--2--2--|--0-------0--0----------|
|---------3--3--3--3--3--|-------0--0--0----------|
|---------4--4--4--4--4--|-------0--0--0----------|
|--4-------4--4--4--4--4--|----------2--2----------|
|--2-------2--2--2--2--2--|--2-------2--2----0--2--|
|-------------------------|--0-------0--0----------|


                                                                             
-------2--2--2----------|-------0--0--0----------|--------------------------|
-------3--3--3----------|-------0--0--0----------|-----------3-----------3--|
-------4--4--4----------|-------0--0--0----------|--------0-----------0-----|
--4-------4--4----4--5--|----------2--2----------|-----2-----------0--------|
--2-------2--2----------|--2-------2--2----0--2--|--3-----------2-----------|
------------------------|--0-------0--0----------|--------------------------|


                                                                             
--------------------------|-----------2-----------|--2----2--2--2--2--2--2--|
-----------3--------------|-----------3-----3-----|--3----3--3--3--3--3--3--|
--------2--------------0--|-----------2--------2--|--2----2--2--2--2--2--2--|
-----2--------------0-----|-----------2--0--------|--0----0--0--0--0--0--0--|
--0--------------2--------|--0--------0-----------|-------------------------|
--------------3-----------|-----------------------|-------------------------|


                                                                            
-------2--2--2--2--2--2--|-------0--0--0----------|-------2--2--2----------|
-------3--3--3--3--3--3--|-------0--0--0----------|-------3--3--3----------|
-------4--4--4--4--4--4--|-------0--0--0----------|-------4--4--4----------|
--4-------4--4--4--4--4--|----------2--2----------|--4-------4--4----4--5--|
--2-------2--2--2--2--2--|--2-------2--2----0--2--|--2-------2--2----------|
-------------------------|--0-------0--0----------|------------------------|


                                                                               
-------0--0--0----------|--------------------------|--------------------------|
-------0--0--0----------|-----------3-----------3--|-----------3--------------|
-------0--0--0----------|--------0-----------0-----|--------2--------------0--|
----------2--2----------|-----2-----------0--------|-----2--------------0-----|
--2-------2--2----0--2--|--3-----------2-----------|--0--------------2--------|
--0-------0--0----------|--------------------------|--------------3-----------|


                                                                         
---------2/3-------------|-------------------|--------------0-----------|
-------------3-----------|--3----------------|-----------------0--------|
---------2------2-----2--|-------------------|-----------0--------0-----|
-------------------2-----|-------------------|--------2--------------2--|
--0------0---------------|-------------------|-----2--------------------|
-------------------------|-------------------|--0-----------------------|


                                                                             
-----------2----2-------|--------------0-----------|-----------2----2-------|
-----------3----3-------|-----------------0--------|-----------3----3-------|
-----------2----2-------|-----------0--------0-----|-----------2----2-------|
--------2--0----0-------|--------2--------------2--|--------2--0----0-------|
-----2---------------2--|-----2--------------------|-----2---------------2--|
--0---------------------|--0-----------------------|--0---------------------|


Verse 2 (Hey there you... killing tim)
[ Tab from: http://www.guitartabs.cc/tabs/s/savatage/sleep_tab_ver_2.html ]
|-----------3--3----------|---------2----2--------|-----------0---------|
|-----------3--3----------|---------3----3--------|-----------0------3--|
|----------0--0----------|--4------4----4--------|-----------0------0--|
|-------0----------------|--4------4----4--4--5--|-----------2------0--|
|-------------------0--2--|--2------2-------------|--2--------2---------|
|---3---------------------|-----------------------|--0--------0---------|


                                                                          
----0--------------0-----|-----------0-------3--|----3-----3----3--------|
-------3-----------------|-----------1-------1--|----1-----1----1--------|
----------0-----0--------|-----------0-------0--|----0-----0----0--5--4--|
-------------2-----2-----|-----------2-------2--|----2-----2----2--------|
----------------------2--|--3--------3----3-----|-------3----------------|
-------------------------|-----------0----------|------------------------|


                                                                           
------------2-------3--|----2----0----2----3---|
------------3-------3--|----3----3----3----3---|
--2----2----2-------2--|----2----2----2----2--|
--0---------0----0--0--|----0----0----0----0--|
-----------------------|-----------------------|
-----------------------|-----------------------|

Play the Chorus again

Verse 3 (And as I lay... don't care)

Speed up the tempo

-----------0--------0-----|-----------2----2-------|-----------0-----------0--|
--------2--------------2--|--------2--0----0-------|--------2-----------0-----|
-----2--------------------|-----2---------------2--|-----2-----------0--------|
--0-----------------------|--0---------------------|--0-----------2-----------|


                                                      
--------------------------|--------------------------|
-----------------------0--|--------------------------|
-----------0--------2-----|-----------0-----------0--|
--------0--------2--------|--------2-----------0-----|
-----2--------0-----------|-----2-----------0--------|
--3-----------------------|--0-----------2-----------|


                                                      
--------------------------|-----0-----------0--------|
-----------------------0--|--------0-----------0-----|
-----------0--------2-----|--------------------------|
--------0--------2--------|--------------------------|
-----2--------0-----------|-----------2-----------0--|
--3-----------------------|--0-----------2-----------|


                                                      
-----0-----------0--------|-----0-----------0--------|
--------0-----------0-----|--------0-----------0-----|
--------------------------|--------------------------|
-----------------------2--|--------------------------|
-----------2--0-----------|-----------2-----------0--|
--3-----------------------|--0-----------2-----------|


                                                                                
-----0-----------0--------|-------------------------|--------------------------|
--------0-----------0-----|-------------------------|--------------------------|
--------------------------|--2----2--2--2--2--2--2--|--2--2--2--2--2--2--2--2--|
-----------------------2--|--2----2--2--2--2--2--2--|--2--2--2--2--2--2--2--2--|
-----------2--0-----------|--0----0--0--0--0--0--0--|--0--0--0--0--0--0--0--0--|
--3-----------------------|-------------------------|--------------------------|


                                                                          
------------------------|--------------0--------|------------------------|
------------------------|-----------------0-----|------------------------|
------------------------|--------------------0--|------------------------|
--2----4----5--------2--|----4----5-------------|--2----4----5--------2--|
--2----4----5--------2--|----4----5-------------|--2----4----5--------2--|
--0----2----3--3--3--0--|----2----3-------------|--0----2----3--3--3--0--|


                                                                         
--------------0--------|------------------------|--------------0--------|
-----------------0-----|------------------------|-----------------0-----|
--------------------0--|------------------------|--------------------0--|
----4----5-------------|--2----4----5--------2--|----4----5-------------|
----4----5-------------|--2----4----5--------2--|----4----5-------------|
----2----3-------------|--0----2----3--3--3--0--|----2----3-------------|


                                                                         
-------------------3--|----3----3--3--3--------|------------------------|
--0------0--0------3--|----3----3--3-----3-----|------------------------|
--2------2--2------0--|----0----0--0--------0--|------------------------|
--2------2--2------0--|----0----0--0-----------|--2----4----5--------2--|
--0------0--0------0--|----0----0--0-----------|--2----4----5--------2--|
-------------------3--|----3----3--3-----------|--0----2----3--3--3--0--|


                                                                         
--------------0--------|------------------------|--------------0--------|
-----------------0-----|------------------------|-----------------0-----|
--------------------0--|------------------------|--------------------0--|
----4----5-------------|--2----4----5--------2--|----4----5-------------|
----4----5-------------|--2----4----5--------2--|----4----5-------------|
----2----3-------------|--0----2----3--3--3--0--|----2----3-------------|


                                                                        
------------------------|--------------0--------|-------------------3--|
------------------------|-----------------0-----|--0------0--0------3--|
------------------------|--------------------0--|--2------2--2------0--|
--2----4----5--------2--|----4----5-------------|--2------2--2------0--|
--2----4----5--------2--|----4----5-------------|--0------0--0------0--|
--0----2----3--3--3--0--|----2----3-------------|-------------------3--|


                                                                          
----3----3--3--3--------|----------3--3----------|---------2----2--------|
----3----3--3-----3-----|----------3--3----------|---------3----3--------|
----0----0--0--------0--|----------0--0----------|--4------4----4--------|
----0----0--0-----------|-------0----------------|--4------4----4--4--5--|
----0----0--0-----------|------------------0--2--|--2------2-------------|
----3----3--3-----------

Outro Verse

----------3--3----------|---------2----2--------|
|----------3--3----------|---------3----3--------|
|----------0--0----------|--4------4----4--------|
|-------0----------------|--4------4----4--4--5--|
|------------------0--2--|--2------2-------------|
|--3---------------------|-----------------------|


                                              
-----------------------|-----0--------------|
-----------------------|--0-----------------|
--------------------0--|--------------------|
-----------------2-----|--------------------|
--2-----------2--------|--------------------|
--0--------0-----------|--------------------|


To get the correct tempo changes better listen to the song. Savatage
tend to change the tempo in many of their songs. For instance, Gutter
Ballet, Hounds...
Comments