Savage Garden - Truly Madly Deeply Chords & Tabs

 

Truly Madly Deeply Chords & Tabs

Savage Garden Chords & Tabs

Version: 3 Type: Tab 0 ratings
1 star 2 stars 3 stars 4 stars 5 stars
comments

Truly Madly Deeply Tab

   
-------------------------------------------------------------------------------
			     Truly Madly Deeply- Savage Garden
-------------------------------------------------------------------------------
Tabbed by: kiwimaniac
Email: skileech@hotmail.com

Tuning: standard EADGBe

You'll have to figure out the timing yourself...it's really simple, just listen to the track

Intro/backing chords

e|---------|
B|-5-3-1-3-|
G|-5-4-2-4-|
D|-5-5-3-5-|
A|---------|
E|---------|

Melody:

Verse:

e|------------------------------------------------------|
B|-1-1-1-1-1-1-1-1-1-1-1-3--1-1-1-1-1-1-1-1-1-1-1-1-3-1-|
G|--------------------2-2----------------------2--------|
D|------------------------------------------------------|
A|------------------------------------------------------|
E|------------------------------------------------------|
[ Tab from: http://www.guitartabs.cc/tabs/s/savage_garden/truly_madly_deeply_tab_ver_3.html ]
e|--------------------------------------------------------|
B|-1-1-1-1-1-1-1-1-1-1-1-1-3-1--1-1-1-1-1-1-1-1-1-1-1-1-1-|
G|--------------------2----------------------------2-2----|
D|--------------------------------------------------------|
A|--------------------------------------------------------|
E|--------------------------------------------------------|

Pre-chorus:

e|-3--------3--------3----------|
B|--1-0-1-1--1-0-1-1--1-0-1-----|
G|--------------------------2-0-|
D|------------------------------|
A|------------------------------|
E|------------------------------|

Chorus:

e|-0-----0-------0-----0---------|
B|--3-1-1-3-1-3---3-1-1-3-3-1-3--|
G|-------------0-----------------| x2
D|-------------------------------|
A|-------------------------------|
E|-------------------------------|

Bridge:

e|------0---------0-0-0-0------0-0-0-0-------------0---------|
B|--1-1---3-1-3-1--------3-3-1--------3-1-3-1--1-1---3-1-3-1-|
G|-2------------------------------------------2--------------|
D|-----------------------------------------------------------|
A|-----------------------------------------------------------|
E|-----------------------------------------------------------|

And that's all there is to it!


| /  slide up
| \  slide down
| h  hammer-on
| p  pull-off
| ~  vibrato
| +  harmonic
| x  Mute note
===============================================================================
Comments