Savage Garden - Truly Madly Deeply Chords & Tabs

 

Truly Madly Deeply Chords & Tabs

Savage Garden Chords & Tabs

Version: 2 Type: Tab 0 ratings
1 star 2 stars 3 stars 4 stars 5 stars
comments

Truly Madly Deeply Tab

   
title: Truly Madly Deeply
artist: Savage Garden
Tabbed by: Patrick L.

This is a really nice song, and it's very easy to play! Just three chords are used.
It's a song for two guitars and sounds amazing with one playing the chords the other
the lead riffs....have fun!



Verse Chords:

C  -  G  -  F  -  G

Verse Lead Riff:

|-----------|
|-1(x11)--3-|
|-----------|
|-----------|
|-----------|
|-----------|


Bridge:
 
  Am           G           F           G
|-(0)-------|-----------|-(1)-------|------|
|-----1-0-1-|-----1-0-1-|-----1-0-1-|------|
|-----------|-(0)-------|-----------|-(0)--|
|-----------|-----------|-----------|------|
|-----------|-----------|-----------|------|
|-----------|-----------|-----------|------|

Chorus Chords:

C  -  G  -  F  -  G


[ Tab from: http://www.guitartabs.cc/tabs/s/savage_garden/truly_madly_deeply_tab_ver_2.html ]
Chorus Lead Riff: (sliding from the 1 - 5 fret sounds cool)
|----------------------|-------------------|
|--5-3-1-1-5-3-3-1-3---|-5-3-1-1-5-3-3-1-3-|
|--------------------0-|-------------------|
|----------------------|-------------------|
|----------------------|-------------------|
|----------------------|-------------------|  x2


2nd Bridge: (how can you see it baby...)
C  -  G  -  F  -  G  -  F  -  G


Solo: (chords C - G - F - G are played through out)

|------7-8-10-|12-12-12--7|8-7---------|-----8-------|
|-8-10--------|-----------|----10-8-8--|-6-8---------|
|-------------|-----------|------------|--------5----|
|-------------|-----------|------------|-----------7-|
|-------------|-----------|------------|-------------|
|-------------|-----------|------------|-------------|

|-----------------5---5--7--8--7--8-10|-10/12|
|-8-6-5-----5-6-8---8-----------------|------|
|-------7-7---------------------------|------|
|-------------------------------------|------|
|-------------------------------------|------|
|-------------------------------------|------|
Comments