Savage Garden - Truly Madly Deeply Chords & Tabs

 

Truly Madly Deeply Chords & Tabs

Savage Garden Chords & Tabs

Version: 2 Type: Bass Tab 0 ratings
1 star 2 stars 3 stars 4 stars 5 stars
comments

Truly Madly Deeply Bass Tab

SAVAGE GARDEN - "Truly, Madly, Deeply" - Bass Tab

Common Time(4/4)
Standard Tuning(EADG)

INTRO:
|---------|---------|---------|---------|---------|---------|
|---------|---------|---------|---------|---------|---------|
|-r-e-s-t-|-r-e-s-t-|-3-------|---------|---------|---------|
|---------|---------|---------|-3-------|-1-------|-3-------|
  1 2 3 4   1 2 3 4   1 2 3 4   1 2 3 4   1 2 3 4   1 2 3 4

VERSE 1 & 2:
                                     (x2)
|----------|---------|---------|----------|
|*---------|---------|---------|---------*|
|*-3-------|---------|---------|---------*|
|----------|-3-------|-1-------|-3--------|
   1 2 3 4   1 2 3 4   1 2 3 4   1 2 3 4

|---------|---------|---------|-------------|
|---------|---------|---------|-------------|
|---------|---------|---------|---------0-1-|
|-5-------|-3-------|-1-------|-3-----------|
  1 2 3 4   1 2 3 4   1 2 3 4   1 2 3 4 & a

CHORUS:
                                                       (x2)
|--------------|-----------|-------------|------------------|
|*-------------|-----------|-------------|-----------------*|
|*-3-----------|-----------|-------------|-------------0-1-*|
|----------0-1-|-3-3-r-r-3-|-1-------0-1-|-3-3-r-r-3--------|
   1 2 3 4 & a   1 & 2 3 4   1 2 3 4 & a   1 & 2 3 & 4 & a
[ Tab from: http://www.guitartabs.cc/tabs/s/savage_garden/truly_madly_deeply_btab_ver_2.html ]
INTERLUDE:
|---------|---------|---------|-----------|---------|
|---------|---------|---------|-----------|---------|
|---------|---------|---------|-----------|---------|
|-1-------|-3-------|-1-------|-3---3-3---|-1-------|
  1 2 3 4   1 2 3 4   1 2 3 4   1 2 3 & 4   1 2 3 4

|---------------|
|---------------|
|-----------0-1-|
|-3---3-3-------|
  1 2 3 & 4 & a

SOLO:
|-------------|-----------|-------------|-----------------|
|-------------|-----------|-------------|-----------------|
|-3-----------|-----------|-------------|-------------0-1-|
|---------0-1-|-3-3-r-r-3-|-1-------0-1-|-3-3-r-r-3-------|
  1 2 3 4 & a   1 & 2 3 4   1 2 3 4 & a   1 & 2 3 & 4 & a

VERSE 3:
|---------|---------|---------|---------|---------|---------|
|---------|---------|---------|---------|---------|---------|
|-3-------|-r-e-s-t-|-r-e-s-t-|-r-e-s-t-|-3-------|---------|
|---------|---------|---------|---------|---------|-3-------|
  1 2 3 4   1 2 3 4   1 2 3 4   1 2 3 4   1 2 3 4   1 2 3 4  

|---------|
|---------|
|---------|
|-1-------|
  1 2 3 4  

END:
                                           (x8 to fade-out)
|--------------|-----------|-------------|------------------|
|*-------------|-----------|-------------|-----------------*|
|*-3-----------|-----------|-------------|-------------0-1-*|
|----------0-1-|-3-3-r-r-3-|-1-------0-1-|-3-3-r-r-3--------|
   1 2 3 4 & a   1 & 2 3 4   1 2 3 4 & a   1 & 2 3 & 4 & a


By: Johari Taylor
E-mail: viking@powerup.com.au, or s369700@student.uq.edu.au
More Bass Tabs: http://www.powerup.com.au/~viking/basstab.htm


 


 



Comments