Savage Garden - To The Moon And Back Chords & Tabs

 

To The Moon And Back Chords & Tabs

Savage Garden Chords & Tabs

Version: 1 Type: Tab 0 ratings
1 star 2 stars 3 stars 4 stars 5 stars
comments

To The Moon And Back Tab

 to the moon and back(savage garden)
 by bassboy
 this is my first tab, so if theres mistakes, RELAKKKK!
 e--7h99---79---------------------------------------------
 b-------------7h9-99------12-10-9h10p9-------------------
 g--------------------------------------9-11--------------
 d-------------------------------------------9-11-99------
 a--------------------------------------------------------
 E--------------------------------------------------------                                     
 e----------------------------------------------99---11-11
 b----------9-10-12-10-9--------------------7/9----9------
 g-----9-11--------------11-9-8-9-11----------------------
 d--11-------------------------------11-------------------
 a--------------------------------------------------------
 E--------------------------------------------------------
 
 e----12-12-12/14-14----11-12-14-11h12p11-----------------
 b-9--------------------------------------12----12/14-12-12
 g-------------------------------------------13-----------
 d--------------------------------------------------------
 a--------------------------------------------------------
 E--------------------------------------------------------
 
 e-----14--14-12-11---------------------------------------
 b-14---------------12----12/14-12-12---------------------
 g---------------------13-------------11^-----------------
 d----------------------------------------11--------------
[ Tab from: http://www.guitartabs.cc/tabs/s/savage_garden/to_the_moon_and_back_tab.html ]
Comments