Savage Garden - Break Me Shake Me Chords & Tabs

 

Break Me Shake Me Chords & Tabs

Savage Garden Chords & Tabs

Version: 1 Type: Bass Tab 0 ratings
1 star 2 stars 3 stars 4 stars 5 stars
comments

Break Me Shake Me Bass Tab

BREAK ME,SHAKE ME
by SAVAGE GARDEN
Tabbed by DAVID LARSSON in association with Peter Uhlig
Comments or corrections: shall_We_funk@hotmail.com

almost impossible to write down the rhytm so try to figure it out by listening to the track - it's a pretty simple tab...

INTRO / SOLO part

G-------------------------------
D2-2-2-22-22-2-2----------------
A---------------5-5-5-5-5-222-22
E-------------------------------

[ Tab from: http://www.guitartabs.cc/tabs/s/savage_garden/break_me_shake_me_btab.html ]
VERSE
G-------------------------------
D2-2-2-22-22-2-2-5-5-555--------
A-----------------------222-22--
E-------------------------------

CHORUS

G-------------------------------
D2-2-2-2-------2-2-2-2----------
A----------2-2--------2-2-5-5---
E-------3-3---------------------

WALKING BASS PART:

G-------------------------------
D22-----------------------------
A--55-33-22-33-22---------------
E----------------33-00----------

INTRO

VERSE

VERSE

CHORUS

SOLO

VERSE

CHORUS

WALKING BASS PART

SOLO

SOLO

VERSE

CHORUS

CHORUS
Comments