Satyricon - Fuel For Hatred Chords & Tabs

 

Fuel For Hatred Chords & Tabs

Satyricon Chords & Tabs

Version: 2 Type: Tab 0 ratings
1 star 2 stars 3 stars 4 stars 5 stars
comments

Fuel For Hatred Tab

   
-------------------------------------------------------------------------------
			     Fuel Of Hatred - Satyricon
-------------------------------------------------------------------------------

Tabbed by: Ste Foy
Email: insultme13@hotmail.com

Tuning: Standard Tuning (EADGBE

Intro
e|---------------------------------------------------------------------------|
B|---------------------------------------------------------------------------|
G|---------------------------------------------------------------------------|
D|---------8-8-8-8---------8-9------------8-8-8-8----------------------------|x4
A|-2-2-2-2-6-6-6-6-2-2-2-2-6-7----2-2-2-2-6-6-6-6-2-2-2-2--------------------|
E|-0-0-0-0---------0-0-0-0--------0-0-0-0---------0-0-0-0--9-10-9-10---------|

Intro (part 2)
e|---------------------------------------------------------------------------|
B|---------------------------------------------------------------------------|
G|---------------------------------------------------------------------------|
D|---------------------------------------------------------------------------|
A|-5h6-6-5-6-3-5h6-6-5-6-3-3-5h6-6-5-6-3---5-5-5-5-5-5-5-5-----------------|
E|-------------------------------------------3-3-3-3-3-3-3-3-----------------|
[ Tab from: http://www.guitartabs.cc/tabs/s/satyricon/fuel_for_hatred_tab_ver_2.html ]
Verse
e|---------------------------------------------------------------------------|
B|---------------------------------------------------------------------------|
G|---------------------------------------------------------------------------|x4
D|---------------------------------------------------------------------------|
A|-2-------------7--13----2-------------7--13--13----------------------------|
E|-05+-5+-5+-5+-5--11----0-5+-5+-5+-5+-5--11--11----------------------------|

Chorus
e|---------------------------------------------------------------------------|
B|---------------------------------------------------------------------------|
G|---------------------------------------------------------------------------|
D|---------------------------------------------------------------------------|x4
A|-7/8-7/8-5--8-8-7-10101010-------------------------------------------------|
E|-5/65/6-3--6-6-5-8-8-8-8--------------------------------------------------|

Verse (x4)
Chorus (x4)
Verse (x4)  Then

Interlude
e|---------------------------------------------------------------------------|
B|---------------------------------------------------------------------------|
G|---------------------------------------------------------------------------|
D|---------------------------------------------------------------------------|x8
A|---------------------------------------------------------------------------|
E|-0--/12-0--/12-0--/12-012~~~----------------------------------------------|

Chorus (part 2) (x4)
Verse (x4)
Chorus (x4)

 /  slide up
 \  slide down
 h  hammer-on
 p  pull-off
 ~  vibrato
 +  harmonic
 x  Mute note

===============================================================================
Comments