Satriani Joe - Time Chords & Tabs

 

Time Chords & Tabs

Satriani Joe Chords & Tabs

Version: 1 Type: Tab 0 ratings
1 star 2 stars 3 stars 4 stars 5 stars
comments

Time Tab

   
Joe Satriani - Time ( Live from Seattle Version )

Gtr I (E A D G B E) - 'Untitled'
Gtr II (E A D G B E) - 'g2'
Gtr III (E A D G B E) - 'Untitled'
Gtr IV (E A D G B E) - 'Untitled'
Gtr V (E A D G B E) - 'backup'
Gtr VI (E A D G B E) - 'Untitled'

    Q=124
   4/4
    Gtrs I, II, III
    E T E E E E E E S +T    +T  E E E S T H
||------------------------|---------------------||
||o-----------------------|--------------------o||
||------4---5-------2-(2)-|-(2)---4-------------||
||------4---5-------2-(2)-|-(2)---4-------------||
||o-----2---3-------0-(0)-|-(0)---2------------o||
||------------------------|---------------------||


  E T E       E     E       E     E       E     S +T
|-----------------------------------------------------|
|-----------------------------------------------------|
|-----4-------------5---------------------------2-(2)-|
|-----4-------------5---------------------------2-(2)-|
|-----2-------------3---------------------------0-(0)-|
|-----------------------------------------------------|
|
| Gtr IV
| E T S +T  E   +T  S +T  E   +T  S +T  E   +T  S +T
|-----------------------------------------------------|
|-----0-(0)-8---(8)-0-(0)-7---(7)---------------------|
|---------------------------------9-(9)s7---(7)s9-(9)-|
|-----------------------------------------------------|
|-----------------------------------------------------|
|-----------------------------------------------------|


  +T  E     E       E       S T H
|------------------------------------------------------------------|
|------------------------------------------------------------------|
|-(2)-------4------------------------------------------------------|
|-(2)-------4------------------------------------------------------|
|-(0)-------2------------------------------------------------------|
|------------------------------------------------------------------|
|
|  E    +T  S +T  S   +S  T Q     +S     +T   +E  +T  +S     +T
|------------------------------------------------------------------|
|--7----(7)-0-(0)--------------------------------------------------|
|-----------------9---(9)-9s4-----(4)b5==(4)r-(4)-(4)-(4)b5==(4)r--|
|------------------------------------------------------------------|
|------------------------------------------------------------------|
|------------------------------------------------------------------|


   E   T   E              E      E              E      E              E      S     +T
|---------------------------------------------------------------------------------------|
|---------------------------------------------------------------------------------------|
|----------4---------------------5-------------------------------------------2-----(2)--|
|----------4---------------------5-------------------------------------------2-----(2)--|
|----------2---------------------3-------------------------------------------0-----(0)--|
|---------------------------------------------------------------------------------------|
|
| +E  +T  +S     +T   +E    +T  +S     +T   +E    +T  +S     +T   +E    +T  +S     +T
|---------------------------------------------------------------------------------------|
|---------------------------------------------------------------------------------------|
|-(4)-(4)-(4)b5==(4)r-(4)---(4)-(4)b5==(4)r-(4)---(4)-(4)b5==(4)r-(4)---(4)-(4)b5==(4)r-|
|---------------------------------------------------------------------------------------|
|---------------------------------------------------------------------------------------|
|---------------------------------------------------------------------------------------|


  +T   E               E               E               S T H
|-------------------------------------------------------------------|
|-------------------------------------------------------------------|
|-(2)------------------4--------------------------------------------|
|-(2)------------------4--------------------------------------------|
|-(0)------------------2--------------------------------------------|
|-------------------------------------------------------------------|
|
| +T  +S     +T   +T  +S     +T   +T  +S     +T   +Q         E E E
|-------------------------------------------------------------------|
|-------------------------------------------------------------------|
|-(4)-(4)b5==(4)r-(4)-(4)b5==(4)r-(4)-(4)b5==(4)r-(4)\--------------|
|-------------------------------------------------------------------|
|-------------------------------------------------------------------|
|------------------------------------------------------------5s0----|


  E  T E E E E      E E      S +T
|----------------------------------|
|----------------------------------|
|------4---5-----------------2-(2)-|
|------4---5-----------------2-(2)-|
|------2---3-----------------0-(0)-|
|----------------------------------|
|
|                ~~~~~~~~~~~~~~~~~~~
| E  H          +Q       +E
|-x--------------------------------|
|---10---------(10)-----(10)-------|
|----------------------------------|
|----------------------------------|
|----------------------------------|
|----------------------------------|


   +T  E E    E S T H
|------------------------------------------------|
|------------------------------------------------|
|--(2)---4---------------------------------------|
|--(2)---4---------------------------------------|
|--(0)---2---------------------------------------|
|------------------------------------------------|
|
|~~~~~~
|                                 |-3-|
|  +Q       Q       E +T   S  +T  E T T S +S
|------------------------------------------------|
|-(10)-----10-------8-(8)-10-(10)-7-8-7s5-(5)----|
|------------------------------------------------|
|------------------------------------------------|
|------------------------------------------------|
|------------------------------------------------|


  E T E   E   E E     E   E   S +T    +T  E E E S T  H
|-----------------------------------|------------------------------------|
|-----------------------------------|------------------------------------|
|-----4-------5---------------2-(2)-|-(2)---4----------------------------|
|-----4-------5---------------2-(2)-|-(2)---4----------------------------|
|-----2-------3---------------0-(0)-|-(0)---2----------------------------|
|-----------------------------------|------------------------------------|
|
|                           ~~~~~~~~~~~~~~
| Q     E   Q     +E    E   E         +H            +Q   E +T  S +T
|-------7---------------7-----------|------------------------------------|
|-7---------7-----(7)-------7-------|-(7)-----------(7)--7-(7)-8-(8)s====|
|-----------------------------------|------------------------------------|
|-----------------------------------|------------------------------------|
|-----------------------------------|------------------------------------|
|-----------------------------------|------------------------------------|


   E   T   E        E     E       E     E       E     S +T
|-----------------------------------------------------------|
|-----------------------------------------------------------|
|----------4--------------5---------------------------2-(2)-|
|----------4--------------5---------------------------2-(2)-|
|----------2--------------3---------------------------0-(0)-|
|-----------------------------------------------------------|
|
|  E  +T   S  +T  E   +T  S +T  E   +T  S +T  E   +T  S +T
|-----------------------------------------------------------|
|-10-(10)-10-(10)-8---(8)-7-(7)s8---(8)-8-(8)-7---(7)-5-(5)s|
|-----------------------------------------------------------|
|-----------------------------------------------------------|
|-----------------------------------------------------------|
|-----------------------------------------------------------|


  +T  E     E        E      S T H
|--------------------------------------------|
|--------------------------------------------|
|-(2)-------4--------------------------------|
|-(2)-------4--------------------------------|
|-(0)-------2--------------------------------|
|--------------------------------------------|
|
|  E    +T  S +T  T.   T. S E     E E.. S S
|--------------------------------------------|
|--7----(7)-7-(7)-5----7--5-3s====5-5---3----|
|-----------------------------------------5--|
|--------------------------------------------|
|--------------------------------------------|
|--------------------------------------------|


  E T E   E     E E  E    E       S +T
|---------------------------------------|
|---------------------------------------|
|-----4---------5-----------------2-(2)-|
|-----4---------5-----------------2-(2)-|
|-----2---------3-----------------0-(0)-|
|---------------------------------------|
|
| ~             ~~~~~~~~~~      ~
| Q     E   +T  Q   +S  E   +T  E
|---------------------------------------|
|---------------------------------------|
|-4-----2---(2)-4---(4)-5---(5)-4-------|
|---------------------------------------|
|---------------------------------------|
|---------------------------------------|


  +T  E     E        E       S T   H
|------------------------------------------------------|
|------------------------------------------------------|
|-(2)-------4------------------------------------------|
|-(2)-------4------------------------------------------|
|-(0)-------2------------------------------------------|
|------------------------------------------------------|
|
|               \2.5                      |
|        ~~~~~~~~~~~~~~~~~~~~~~~~~~~~~~
| +E    +E      E       +E        +Q     +E.   +S
|------------------------------------------------------|
|-------------()----()-----()--()-()----|
|-(4)---(4)----(4)------(4)-------(4)----(4)---(4)-----|
|------------------------------------------------------|
|------------------------------------------------------|
|------------------------------------------------------|


    E   T E E E E      E E      S +T
|-------------------------------------|
|-------------------------------------|
|---------4---5-----------------2-(2)-|
|---------4---5-----------------2-(2)-|
|---------2---3-----------------0-(0)-|
|-------------------------------------|
|
|                   ~~~~~~~~~~~~~~~~~~~
|   E   H          +Q       +E
|-------------------------------------|
|------10---------(10)-----(10)-------|
|-/(9)--------------------------------|
|-------------------------------------|
|-------------------------------------|
|-------------------------------------|


   +T  E E      E S T H
|--------------------------------------------------|
|--------------------------------------------------|
|--(2)---4-----------------------------------------|
|--(2)---4-----------------------------------------|
|--(0)---2-----------------------------------------|
|--------------------------------------------------|
|
|~~~~~~~~~~~~~~~
|                                   |-3-|
|  +Q       +Q        E +T   S  +T  E T T S +S
|--------------------------------------------------|
|-(10)-----(10)-------8-(8)-10-(10)-7-8-7s5-(5)----|
|--------------------------------------------------|
|--------------------------------------------------|
|--------------------------------------------------|
|--------------------------------------------------|


  E T E   E   E E     E   E   S +T    +T  E E E S T  H
|-----------------------------------|-----------------------------------|
|-----------------------------------|-----------------------------------|
|-----4-------5---------------2-(2)-|-(2)---4---------------------------|
|-----4-------5---------------2-(2)-|-(2)---4---------------------------|
|-----2-------3---------------0-(0)-|-(0)---2---------------------------|
|-----------------------------------|-----------------------------------|
|
|                           ~~~~~~~~~~~~~~
| Q     E   Q     +E    E   E         +H            +Q   E +T  S +T
|-------7---------------7-----------|-----------------------------------|
|-7---------7-----(7)-------7-------|-(7)-----------(7)--7-(7)-8-(8)----|
|-----------------------------------|-----------------------------------|
|-----------------------------------|-----------------------------------|
|-----------------------------------|-----------------------------------|
|-----------------------------------|-----------------------------------|


   E   T   E        E     E       E     E       E     S +T
|-----------------------------------------------------------|
|-----------------------------------------------------------|
|----------4--------------5---------------------------2-(2)-|
|----------4--------------5---------------------------2-(2)-|
|----------2--------------3---------------------------0-(0)-|
|-----------------------------------------------------------|
|
|  E  +T   S  +T  E   +T  S +T  E   +T  S +T  E   +T  S +T
|-----------------------------------------------------------|
|-10-(10)-10-(10)-8---(8)-7-(7)s8---(8)-8-(8)-7---(7)-5-(5)s|
|-----------------------------------------------------------|
|-----------------------------------------------------------|
|-----------------------------------------------------------|
|-----------------------------------------------------------|


  +T  E     E        E      S T H
|--------------------------------------------|
|--------------------------------------------|
|-(2)-------4--------------------------------|
|-(2)-------4--------------------------------|
|-(0)-------2--------------------------------|
|--------------------------------------------|
|
|  E    +T  S +T  T.   T. S E     E E.. S S
|-----------------------------------7--------|
|--7----(7)-7-(7)-5----7--5-3s====5-----5-3--|
|--------------------------------------------|
|--------------------------------------------|
|--------------------------------------------|
|--------------------------------------------|


  E T E   E     E E  E    E       S +T
|---------------------------------------|
|---------------------------------------|
|-----4---------5-----------------2-(2)-|
|-----4---------5-----------------2-(2)-|
|-----2---------3-----------------0-(0)-|
|---------------------------------------|
|
| ~             ~~~~~~~~~~      ~
| Q     E   +T  Q   +S  E   +T  E
|---------------------------------------|
|---------------------------------------|
|-4-----2---(2)-4---(4)-5---(5)-4-------|
|---------------------------------------|
|---------------------------------------|
|---------------------------------------|


  +T  E     E        E       S T   H
|---------------------------------------------------|
|---------------------------------------------------|
|-(2)-------4---------------------------------------|
|-(2)-------4---------------------------------------|
|-(0)-------2---------------------------------------|
|---------------------------------------------------|
|
|               \2.5                      |
|        ~~~~~~~~~~~~~~~~~~~~~~~~~~~~~~
| +E    +E      E       +E        +Q     +E.   +S
|---------------------------------------------------|
|-------------()----()-----()--()-()-|
|-(4)---(4)----(4)------(4)-------(4)----(4)---(4)--|
|---------------------------------------------------|
|---------------------------------------------------|
|---------------------------------------------------|


  $
  Gtrs III, V
  E H         +Q    +E        E H         +Q   +E
|---------------------------|-4s5---------(5)--(5)---------|
|-6s8---------(8)---(8)-----|------------------------------|
|-7s9---------(9)---(9)-----|-6s7---------(7)--(7)---------|
|---------------------------|-6s7---------(7)--(7)---------|
|---------------------------|------------------------------|
|---------------------------|------------------------------|
|
| Q    Q  +E   E. S +S  +S    Q   E +T  H          +S  +T
|---------------------------|------------------------------|
|---------------------------|------------------------------|
|-----/2--(2)--4--5-(5)-(5)-|-7---9-(9)-7----------(7)-(7)-|
|---------------------------|------------------------------|
|---------------------------|------------------------------|
|---------------------------|------------------------------|


  E H            +Q       +E             E     H                       +Q    +E
|-5s7------------(7)------(7)---------|-10s===12----------------------(12)--(12)-------|
|-3s5------------(5)------(5)---------|-10s===12----------------------(12)--(12)-------|
|-------------------------------------|------------------------------------------------|
|-------------------------------------|------------------------------------------------|
|-------------------------------------|------------------------------------------------|
|-------------------------------------|------------------------------------------------|
|
| E T S.  Q  +Q      S. S      S  +T     T  E     +S   +S   E  +T   H             +S
|-------------------------------------|------------------------------------------------|
|--------------------7--8-----10-(10)-|-10s12----(12)-(12)-13-(13)-10------------(10)--|
|--------/9--(9)----------------------|------------------------------------------------|
|-----9-------------------------------|------------------------------------------------|
|-------------------------------------|------------------------------------------------|
|-------------------------------------|------------------------------------------------|


    E   H         +Q         +E                  E  H         +Q    +E
|---8s=10--------(10)-------(10)--------------|-------------------------|
|---------------------------------------------|-10s12--------(12)--(12)-|
|---5s==7---------(7)--------(7)--------------|--9s11--------(11)--(11)-|
|---------------------------------------------|-------------------------|
|---------------------------------------------|-------------------------|
|---------------------------------------------|-------------------------|
|
|  +Q      T  H        +S     S   +X   S  +X     Q     E  H         +E
|----------------------------10--(10)-12-(12)-|-14----15-12--------(12)-|
|-(10)----10s12-------(12)--------------------|-------------------------|
|---------------------------------------------|-------------------------|
|---------------------------------------------|-------------------------|
|---------------------------------------------|-------------------------|
|---------------------------------------------|-------------------------|


    E      H                   +Q         +E                  E H            +Q   +E
|----------------------------------------------------------|--------------------------------|
|----------------------------------------------------------|--------------------------------|
|---7s=====9-------------------(9)--------(9)--------------|--7s9------------(9)--(9)-------|
|---9s====11------------------(11)-------(11)--------------|--5s7------------(7)--(7)-------|
|----------------------------------------------------------|--------------------------------|
|----------------------------------------------------------|--------------------------------|
|
|                       ~~~~~                                              ~~~~~~~~~~~~~~~~
|  +S   E     +S       +H          S.  S       +X   S  +X     Q    E  +T   H           +S.
|-(12)-11----(11)b12==(11)r--------0--12------(12)-10-(10)-|------12-(12)-------------------|
|----------------------------------------------------------|-13-----------------------------|
|----------------------------------------------------------|--------------14----------(14)--|
|----------------------------------------------------------|--------------------------------|
|----------------------------------------------------------|--------------------------------|
|----------------------------------------------------------|--------------------------------|


    E  H               +Q                  +E        E  H                +Q    +E
|-------------------------------------------------|-------------------------------------|
|-------------------------------------------------|-------------------------------------|
|---7s=9---------------(9)-----------------(9)----|--9s11---------------(11)--(11)------|
|---7s=9---------------(9)-----------------(9)----|--9s11---------------(11)--(11)------|
|-------------------------------------------------|-------------------------------------|
|-------------------------------------------------|-------------------------------------|
|
|                                                                     ~~~~~~~~~~~~~~~~~~
|         |--3--|   |---3----|        |----3----|
|  +Q     E  E  Q  +E       +T   +S   E  E      E    Q     E  +T   S  H             +T
|-------------------------------------------------|-------------------------------------|
|-------------------------------------------------|-14----15-(15)-----------------------|
|-(14)---14-13-14-(14)-----(14)-(14)-14-13-----14-|-------------------------------------|
|-------------------------------------------------|---------------14s16------------(16)-|
|-------------------------------------------------|-------------------------------------|
|-------------------------------------------------|-------------------------------------|


    E   H         +Q       +E        E           H                  +Q    +E
|---------------------------------|--------------------------------------------------|
|--11s=12--------(12)-----(12)----|--------------------------------------------------|
|---------------------------------|--8s==========9------------------(9)---(9)--------|
|--11s=12--------(12)-----(12)----|-10s=========11-----------------(11)--(11)--------|
|---------------------------------|--------------------------------------------------|
|---------------------------------|--------------------------------------------------|
|
|                                                                ~~~~~~~~~~~~~~~~~~
|  +Q      E.  Q       E.   S   S    S      +E      +E   +S   S  H             +S
|------------------------------15-|-15b17==(15)----(15)r(15)-15s17------------(17)---|
|-------------15------17---19-----|--------------------------------------------------|
|---------16----------------------|--------------------------------------------------|
|-(16)----------------------------|--------------------------------------------------|
|---------------------------------|--------------------------------------------------|
|---------------------------------|--------------------------------------------------|


  E  H                  +Q           +E              E H                  +Q           +E
|--------------------------------------------------|-------------------------------------------------|
|--------------------------------------------------|-------------------------------------------------|
|-7s=8------------------(8)----------(8)-----------|-8s9------------------(9)----------(9)-----------|
|-8s=9------------------(9)----------(9)-----------|-6s7------------------(7)----------(7)-----------|
|--------------------------------------------------|-------------------------------------------------|
|--------------------------------------------------|-------------------------------------------------|
|
|       ~~                                                ~~
|                            |--3--|                                           |--3--|
| E  S  Q   +T   E  +S.      S  S  Q      +T   +T    E    Q   T  +E   +S.      S  S  Q      +S   +S
|---16s18--(18)-18-(18)-----16-14------------------|-----19--19-(19)-(19)-----17-15------------------|
|---------------------------------16-----(16)-(16)-|--------------------------------17-----(17)-(17)-|
|--------------------------------------------------|-------------------------------------------------|
|--------------------------------------------------|-------------------------------------------------|
|--------------------------------------------------|-------------------------------------------------|
|--------------------------------------------------|-------------------------------------------------|


                                                    To Coda
  E  H               +Q   +E    E H            +Q          +E
|-----------------------------|--------------------------------|
|-6s=8---------------(8)--(8)-|-8s9------------(9)---------(9)-|
|-5s=7---------------(7)--(7)-|-7s8------------(8)---------(8)-|
|-3s=5---------------(5)--(5)-|-5s6------------(6)---------(6)-|
|-----------------------------|--------------------------------|
|-----------------------------|--------------------------------|
|
|                ~~~                            ~~~~~~~~~~~
| E  E      +Q   H                E.  E.  +S   +E      +Q   E.
|---20b22==(20)-20\-----------|------21r=(21)-(21)b23-(21)-----|
|-----------------------------|--------------------------------|
|-----------------------------|-----------------------------x\-|
|-----------------------------|-----------------------------x\-|
|-----------------------------|-----------------------------x\-|
|-----------------------------|-----------------------------x\-|


  Gtrs I, III
  E T E E E E E E S +T    +T  E E E S T H
|-----------------------|-----------------------|
|-----------------------|-----------------------|
|-----4---5-------2-(2)-|-(2)---4---------------|
|-----4---5-------2-(2)-|-(2)---4---------------|
|-----2---3-------0-(0)-|-(0)---2---------------|
|-----------------------|-----------------------|
|
| W                        H            H
|-----------------------|-----------------------|
|-----------------------|-----------------------|
|-----------------------|-----------------------|
|-----------------------|-----------------------|
|-----------------------|---------------0tr2----|
|-----------------------|-----------------------|


  E T E E E E E E S +T    +T  E E E S T H
|-----------------------|--------------------------|
|-----------------------|--------------------------|
|-----4---5-------2-(2)-|-(2)---4------------------|
|-----4---5-------2-(2)-|-(2)---4------------------|
|-----2---3-------0-(0)-|-(0)---2------------------|
|-----------------------|--------------------------|
|
| W                        H            E E E E
|-----------------------|--------------------------|
|-----------------------|--------------------------|
|-----------------------|--------------------------|
|-----------------------|---------------x-x-x-x----|
|-----------------------|--------------------------|
|-----------------------|--------------------------|


  E T E       E     E       E     E       E   S +T    +T  E     E       E       S T H
|---------------------------------------------------|-----------------------------------------------------------------|
|---------------------------------------------------|-----------------------------------------------------------------|
|-----4-------------5-------------------------2-(2)-|-(2)-------4-----------------------------------------------------|
|-----4-------------5-------------------------2-(2)-|-(2)-------4-----------------------------------------------------|
|-----2-------------3-------------------------0-(0)-|-(0)-------2-----------------------------------------------------|
|---------------------------------------------------|-----------------------------------------------------------------|
|
| E T S +T  E   +T  S +T  E   +T  S +T  E   E          E    +T  S +T  S   +S  T Q     +S     +T   +E  +T  +S     +T
|---------------------------------------------------|-----------------------------------------------------------------|
|-----0-(0)-8---(8)-0-(0)-7---(7)-----------0-------|--7----(7)-0-(0)-------------------------------------------------|
|---------------------------------9-(9)s7-----------|-----------------9---(9)-9s4-----(4)b5==(4)r-(4)-(4)-(4)b5==(4)r-|
|---------------------------------------------------|-----------------------------------------------------------------|
|---------------------------------------------------|-----------------------------------------------------------------|
|---------------------------------------------------|-----------------------------------------------------------------|


   E   T   E              E      E               E               E               E               S     +T     +T   E E E S T H
|-----------------------------------------------------------------------------------------------------------|------------------------------
|-----------------------------------------------------------------------------------------------------------|------------------------------
|----------4---------------------5---------------------------------------------------------------2-----(2)--|-(2)----4---------------------
|----------4---------------------5---------------------------------------------------------------2-----(2)--|-(2)----4---------------------
|----------2---------------------3---------------------------------------------------------------0-----(0)--|-(0)----2---------------------
|-----------------------------------------------------------------------------------------------------------|------------------------------
|
| +E  +T  +S     +T   +E    +T  +S     +T   +T  +S     +T   +T  +S     +T   +T  +S     +T   +T  +S     +T     +Q       H        E    E
|-----------------------------------------------------------------------------------------------------------|------------------------------
|-----------------------------------------------------------------------------------------------------------|------------------------------
|-(4)-(4)-(4)b5==(4)r-(4)---(4)-(4)b5==(4)r-(4)-(4)b5==(4)r-(4)-(4)b5==(4)r-(4)-(4)b5==(4)r-(4)-(4)b5==(4)r-|-(4)\-------------------------
|-----------------------------------------------------------------------------------------------------------|------------------------------
|-----------------------------------------------------------------------------------------------------------|----------7s=======0s==14-----
|-----------------------------------------------------------------------------------------------------------|----------7s=======0s==14-----


  E T  E              E       E              E       E              E       S      +T
|--------------------------------------------------------------------------------------|
|--------------------------------------------------------------------------------------|
|------4----------------------5---------------------------------------------2------(2)-|
|------4----------------------5---------------------------------------------2------(2)-|
|------2----------------------3---------------------------------------------0------(0)-|
|--------------------------------------------------------------------------------------|
|
|      \0.75/  \0.75/         \0.75/  \0.75/         \0.75/  \0.75/         \0.75/
| E T  S.      E         +T   S.      E         +T   S.      E         +T   S.
|--------------------------------------------------------------------------------------|
|--------------------------------------------------------------------------------------|
|--------------------------------------------------------------------------------------|
|--------------------------------------------------------------------------------------|
|-----14------14--------(14)-15------15--------(15)-12------12--------(12)-14----------|
|--------------------------------------------------------------------------------------|


  +T      E       E              E       S      T  H
|-------------------------------------------------------------------------------------|
|-------------------------------------------------------------------------------------|
|-(2)-------------4-------------------------------------------------------------------|
|-(2)-------------4-------------------------------------------------------------------|
|-(0)-------------2-------------------------------------------------------------------|
|-------------------------------------------------------------------------------------|
|
|  \0.75/         \0.75/  \0.75/         \0.75/    \0.75/       \0.75/  \0.75/
|  E         +T   S.      E         +T   S.        E       +T   S.      E        E
|-------------------------------------------------------------------------------------|
|-------------------------------------------------------------------------------------|
|-------------------------------------------------------------------------------------|
|-------------------------------------------------------------------------------------|
|-14--------(14)-15------15--------(15)-12--------12------(12)-14------14s======12----|
|-------------------------------------------------------------------------------------|


   E         T E           E   E   E     E   E   S  +T
|-------------------------------------------------------|
|-------------------------------------------------------|
|--------------4---------------5-----------------2--(2)-|
|--------------4---------------5-----------------2--(2)-|
|--------------2---------------3-----------------0--(0)-|
|-------------------------------------------------------|
|
|  \1/  \1/            \1/     \1/   \1/     \1/
|  S    S    S    +T   E     S E   S E     S E   S.
|-------------------------------------------------------|
|-------------------------------------------------------|
|-------------------------------------------------------|
|-------------------------------------------------------|
|-12---12s==10---(10)-10s====9-9s==7-7s====5-5s==3------|
|-------------------------------------------------------|


  +T  E             E             E             S     T     H
|-----------------------------------------------------------------------------|
|-----------------------------------------------------------------------------|
|-(2)---------------4---------------------------------------------------------|
|-(2)---------------4---------------------------------------------------------|
|-(0)---------------2---------------------------------------------------------|
|-----------------------------------------------------------------------------|
|
|       \1/     \1/       \1/       \1/     \1/         \1/
|       |-3--|  |--3---|  |-3--|    |-3--|  |--3---|          |-----3-----|
|       S   +S  S     +S  S   +S    S   +S  S     +S    Q   S T. T. T. T. T E
|-----------------------------------------------------------------------------|
|-----------------------------------------------------------------------------|
|-----------------------------------------------------------------------------|
|-----------------------------------------------------------------------------|
|-------2---(2)-2-----(2)-2---(2)---0---(0)-0-----(0)---2---------------------|
|-----------------------------------------------------------------------------|


  E T  E        E      E                E                E                E                S           +T
|----------------------------------------------------------------------------------------------------------|
|----------------------------------------------------------------------------------------------------------|
|------4---------------5-------------------------------------------------------------------2-----------(2)-|
|------4---------------5-------------------------------------------------------------------2-----------(2)-|
|------2---------------3-------------------------------------------------------------------0-----------(0)-|
|----------------------------------------------------------------------------------------------------------|
|
|      \1/  \1/           \1/       \1/         \1/         \1/       \1/         \1/         \1/
|           |---3---|     |--3--|   |---3---|   |--3--|     |--3--|   |---3---|   |--3--|     |--3--|
| E T  S.   E      +E     S    +S   S      +S   S    +S     S    +S   S      +S   S    +S     S    +S
|----------------------------------------------------------------------------------------------------------|
|----------------------------------------------------------------------------------------------------------|
|----------------------------------------------------------------------------------------------------------|
|--------------------------------------------------------------------------------14---(14)---14---(14)-----|
|-----14---14-----(14)---15---(15)-15-----(15)-14---(14)---14---(14)-14-----(14)---------------------------|
|----------------------------------------------------------------------------------------------------------|


  +T   E                E                E                S           T  H
|--------------------------------------------------------------------------------------------------------------------------------------|
|--------------------------------------------------------------------------------------------------------------------------------------|
|-(2)-------------------4--------------------------------------------------------------------------------------------------------------|
|-(2)-------------------4--------------------------------------------------------------------------------------------------------------|
|-(0)-------------------2--------------------------------------------------------------------------------------------------------------|
|--------------------------------------------------------------------------------------------------------------------------------------|
|
|  \1/         \1/         \1/       \1/         \1/         \1/         \1/       \1/       \1/       \1/       \1/       \1/
|  |---3---|   |--3--|     |--3--|   |---3---|   |--3--|     |--3--|     |--3--|   |--3--|   |--3--|   |--3--|   |--3--|   |--3--|
|  S      +S   S    +S     S    +S   S      +S   S    +S     S    +S     S    +S   S    +S   S    +S   S    +S   S    +S   S    +S
|--------------------------------------------------------------------------------------------------------------------------------------|
|--------------------------------------------------------------------------------------------------------------------------------------|
|-----------------------------------------------12---(12)---12---(12)---12---(12)-11---(11)-11---(11)-11---(11)-14---(14)-11---(11)----|
|-14-----(14)-12---(12)---12---(12)-12-----(12)----------------------------------------------------------------------------------------|
|--------------------------------------------------------------------------------------------------------------------------------------|
|--------------------------------------------------------------------------------------------------------------------------------------|

[ Tab from: http://www.guitartabs.cc/tabs/s/satriani_joe/time_tab.html ]
   E               T  E                E                E                E                E                E                S           +T
|-------------------------------------------------------------------------------------------------------------------------------------------|
|-------------------------------------------------------------------------------------------------------------------------------------------|
|---------------------4---------------------------------5-------------------------------------------------------------------2-----------(2)-|
|---------------------4---------------------------------5-------------------------------------------------------------------2-----------(2)-|
|---------------------2---------------------------------3-------------------------------------------------------------------0-----------(0)-|
|-------------------------------------------------------------------------------------------------------------------------------------------|
|
|  \1/       \1/         \1/       \1/         \1/         \1/       \1/         \1/         \1/       \1/         \1/         \1/
|  |--3--|   |--3--|     |--3--|   |---3---|   |--3--|     |--3--|   |---3---|   |--3--|     |--3--|   |---3---|   |--3--|     |--3--|
|  S    +S   S    +S     S    +S   S      +S   S    +S     S    +S   S      +S   S    +S     S    +S   S      +S   S    +S     S    +S
|-------------------------------------------------------------------------------------------------------------------------------------------|
|-----------------------------------------------------------------------------------------------------15-----(15)-12---(12)---15---(15)-----|
|-14---(14)-14---(14)---11---(11)-14-----(14)-14---(14)---11---(11)-14-----(14)-14---(14)---11---(11)---------------------------------------|
|-------------------------------------------------------------------------------------------------------------------------------------------|
|-------------------------------------------------------------------------------------------------------------------------------------------|
|-------------------------------------------------------------------------------------------------------------------------------------------|


  +T   E                E            E     S   T     H
|------------------------------------------------------------------------|
|------------------------------------------------------------------------|
|-(2)-------------------4------------------------------------------------|
|-(2)-------------------4------------------------------------------------|
|-(0)-------------------2------------------------------------------------|
|------------------------------------------------------------------------|
|
|  \1/         \1/         \1/       \1/       \1/       \1/       \1/
|  |---3---|   |--3--|     |--3--|   |--3--|   |--3--|   |--3--|
|  S      +S   S    +S     S    +S   S    +S   S    +S   S    +S   H
|------------------------------------------------------------------------|
|-12-----(12)-15---(15)---12---(12)-17---(17)-17---(17)-17---(17)-12-----|
|------------------------------------------------------------------------|
|------------------------------------------------------------------------|
|------------------------------------------------------------------------|
|------------------------------------------------------------------------|


    E     T E           E           E           E           E           E           S    +T
|-----------------------------------------------------------------------------------------------|
|-----------------------------------------------------------------------------------------------|
|-----------4-----------------------5-----------------------------------------------2----(2)----|
|-----------4-----------------------5-----------------------------------------------2----(2)----|
|-----------2-----------------------3-----------------------------------------------0----(0)----|
|-----------------------------------------------------------------------------------------------|
|
|  +S   E      T  T  T  T  T  T  T  T  T  T  T  T  T  T  T  T  T  T  T  T  T  T  T  T  T  T
|------17-----17-17-17-17-17-17-17-17-17-17-17-17-17-17-17-17-17-17-17-17-17-17-17-17-17-17-----|
|-(12)------------------------------------------------------------------------------------------|
|-----------------------------------------------------------------------------------------------|
|-----------------------------------------------------------------------------------------------|
|-----------------------------------------------------------------------------------------------|
|-----------------------------------------------------------------------------------------------|


  +T   E           E           E           S     T  H
|--------------------------------------------------------------------------------------------------|
|--------------------------------------------------------------------------------------------------|
|-(2)--------------4-------------------------------------------------------------------------------|
|-(2)--------------4-------------------------------------------------------------------------------|
|-(0)--------------2-------------------------------------------------------------------------------|
|--------------------------------------------------------------------------------------------------|
|
|  T   T  T  T  T  T  T  T  T  T  T  T  T  T  T  T  T  T  T  T  T  T  T  T  T  T  T  T  T  T  T  T
|-17--17-17-17-17-17-17-17-17-17-17-17-17-17-17-17-15-15-14-14-15-15-17s15-14-15-15-17s15s14-15-15-|
|--------------------------------------------------------------------------------------------------|
|--------------------------------------------------------------------------------------------------|
|--------------------------------------------------------------------------------------------------|
|--------------------------------------------------------------------------------------------------|
|--------------------------------------------------------------------------------------------------|


   E           T    E             E           E           E           E            E           S    +T
|--------------------------------------------------------------------------------------------------------|
|--------------------------------------------------------------------------------------------------------|
|-------------------4-------------------------5------------------------------------------------2----(2)--|
|-------------------4-------------------------5------------------------------------------------2----(2)--|
|-------------------2-------------------------3------------------------------------------------0----(0)--|
|--------------------------------------------------------------------------------------------------------|
|
|  T.  T  T  T    T    T  T  T  T.   T  T  T  T  T  T.  T.   T  T  T  T  T  T.  T.    T  T  T  T  T  T
|-17--15s14-15---15---17-15-14-17s==15s14-14-15-15-17--15s==14-14-11-15-15-15--17----15-14s11-15-15-17---|
|--------------------------------------------------------------------------------------------------------|
|--------------------------------------------------------------------------------------------------------|
|--------------------------------------------------------------------------------------------------------|
|--------------------------------------------------------------------------------------------------------|
|--------------------------------------------------------------------------------------------------------|


  +T   E          E           E           S     T  H
|-------------------------------------------------------------------------------------------|
|-------------------------------------------------------------------------------------------|
|-(2)-------------4-------------------------------------------------------------------------|
|-(2)-------------4-------------------------------------------------------------------------|
|-(0)-------------2-------------------------------------------------------------------------|
|-------------------------------------------------------------------------------------------|
|
|  T   T  T  T. T    T. T. T.    T  T  T  T  T  T  T  T  T  T  T.  T.  T  T. T  T  T  T.T T
|-15--14-14-15s12---15s14s15----12-12-15-14-15-12-12-14-14-10-14--12--14-14s10-10-12-12s8-8-|
|-------------------------------------------------------------------------------------------|
|-------------------------------------------------------------------------------------------|
|-------------------------------------------------------------------------------------------|
|-------------------------------------------------------------------------------------------|
|-------------------------------------------------------------------------------------------|


  E          T  E          E           E           E          E          E          S   +T
|-------------------------------------------------------------------------------------------|
|-------------------------------------------------------------------------------------------|
|---------------4----------------------5--------------------------------------------2---(2)-|
|---------------4----------------------5--------------------------------------------2---(2)-|
|---------------2----------------------3--------------------------------------------0---(0)-|
|-------------------------------------------------------------------------------------------|
|
| T  T T  T  T  T  T  T  S    T  T  T  T  T  T  T  T  T  T T  T T  T  T  T  T  T T  T T  T
|-8-10s7------------------------------------------------------------------------------------|
|--------13-15-13-12-13-12---13-12-10-10-12-13-15-13-12-10s8------13-10-13-12-10-8----------|
|------------------------------------------------------------10-9------------------10-9--7--|
|-------------------------------------------------------------------------------------------|
|-------------------------------------------------------------------------------------------|
|-------------------------------------------------------------------------------------------|


  +T E       E         E         S    T   H
|--------------------------------------------------------------------------|
|--------------------------------------------------------------------------|
|-(2)--------4-------------------------------------------------------------|
|-(2)--------4-------------------------------------------------------------|
|-(0)--------2-------------------------------------------------------------|
|--------------------------------------------------------------------------|
|
|  T T T T T T T. T T.   T T. T.   T.   T   T T T T T T T T. T T T T T T T
|--------------------------------------------------------------------------|
|---------------------------------------5----------------------------------|
|--5s4-5-7-9-5s4--5-7----5-4--5----7--------7-5-4-------4-5--4---5-7-5-4---|
|-------------------------------------------------7-4-7--------7---------7-|
|--------------------------------------------------------------------------|
|--------------------------------------------------------------------------|


  E        T   E         E         E         E         E       E         S    +T
|------------------------------------------------------------------------------------|
|------------------------------------------------------------------------------------|
|--------------4-------------------5-------------------------------------2----(2)----|
|--------------4-------------------5-------------------------------------2----(2)----|
|--------------2-------------------3-------------------------------------0----(0)----|
|------------------------------------------------------------------------------------|
|
| T T T. T   T   T T T T   T T T T   T T T T   T T T T   T T T T. T T T.   T.     T
|------------------------------------------------------------------------------------|
|------------------------------------------------------------------------------------|
|----------------------------2-------------------------------------------------------|
|-5-4----4---5---7-4s2-4---5---5-4---2-----------------------2-----------------------|
|-----7--------------------------------5-3-2---2-3-5-3---2-5---5--3-2----------------|
|---------------------------------------------------------------------5----3------2--|


  +T  E        E     E     S   T H
|-------------------------------------------------|
|-------------------------------------------------|
|-(2)----------4----------------------------------|
|-(2)----------4----------------------------------|
|-(0)----------2----------------------------------|
|-------------------------------------------------|
|
|                                        ~~~~~~
|  T  T. T T T   S S   S T.  S     T S.S Q +S.
|-------------------------------------------------|
|-------------------------------------------------|
|------------------------2s==4-----5-4s2-4-(4)----|
|----------------2-4---5--------------------------|
|--------2-3-5------------------------------------|
|--3--5-------------------------------------------|


  Gtrs III, V
  E H                    +Q                    +E
|-----------------------------------------------------------|
|-6s8--------------------(8)-------------------(8)----------|
|-7s9--------------------(9)-------------------(9)----------|
|-----------------------------------------------------------|
|-----------------------------------------------------------|
|-----------------------------------------------------------|
|
|                                        |-----3------|
| E E.. S.S. T  T. T.  T     T T T T T T T. T.     T. T.
|---7b8r7s8--7----------------------------------------------|
|--------------10--8--10-----8-7----------------------------|
|--------------------------------9-7-5---5--7------5--------|
|--------------------------------------9--------------9-----|
|-----------------------------------------------------------|
|-----------------------------------------------------------|


  E          H                           +Q        +E
|-4s=========5---------------------------(5)-------(5)-------|
|------------------------------------------------------------|
|-6s=========7---------------------------(7)-------(7)-------|
|-6s=========7---------------------------(7)-------(7)-------|
|------------------------------------------------------------|
|------------------------------------------------------------|
|
| |-3--|  |3-| |-3-|
| T.T. T. T. T T T T. T T T T T T T. Q       +S..   S. S.
|-------------------------------------------------(19)s5-----|
|-------------------------------------------------(19)s5-----|
|-5-7--9--7--5------------------------------------(19)s5-----|
|--------------9-5s4--7-5-4s5-7-9----------------------------|
|---------------------------------7--5b7r====(5)-------------|
|------------------------------------------------------------|


   E  H          +Q     +E
|--5s=7----------(7)----(7)--------------------------------|
|--3s=5----------(5)----(5)--------------------------------|
|----------------------------------------------------------|
|----------------------------------------------------------|
|----------------------------------------------------------|
|----------------------------------------------------------|
|
|                                    |-----3------|
| +S..S T. T.  T  T  T.  T  S   S. E S  S S  S S  S T T
|-(5)-------------7--8--10--8--10s12-8-12-8-12-8-12-8s7----|
|-(5)-5s7--8--10-------------------------------------------|
|-(5)------------------------------------------------------|
|----------------------------------------------------------|
|----------------------------------------------------------|
|----------------------------------------------------------|


   E          H           +Q         +E
|-10s========12----------(12)-------(12)----|
|-10s========12----------(12)-------(12)----|
|-------------------------------------------|
|-------------------------------------------|
|-------------------------------------------|
|-------------------------------------------|
|
|                          \7_________|
|  |-----3------|
|  S.S.. S..    Q  E. S.  +E.   +S.   S
|-------------------------------------------|
|--8----------------------------------------|
|----9---7s=====4---------------------------|
|-----------------12s16--(16)--(16)-(16)----|
|-----------------12s16--(16)--(16)-(16)----|
|-----------------12s16--(16)--(16)-(16)----|


  E  H                                +Q                +E
|-8s10-------------------------------(10)--------------(10)--------|
|------------------------------------------------------------------|
|-5s=7--------------------------------(7)---------------(7)--------|
|------------------------------------------------------------------|
|------------------------------------------------------------------|
|------------------------------------------------------------------|
|
| E  X  E.  X  T.  T  T.  E  +X   T.       T  T.  E  X   T.  T  T.
|------19--19-15-----15--19-(19)-15----------15--19-19--15-----15--|
|-----------------19----------------------19----------------19-----|
|------------------------------------------------------------------|
|------------------------------------------------------------------|
|------------------------------------------------------------------|
|------------------------------------------------------------------|


   E  H                              +Q            +E
|---------------------------------------------------------|
|-10s12-----------------------------(12)----------(12)----|
|--9s11-----------------------------(11)----------(11)----|
|---------------------------------------------------------|
|---------------------------------------------------------|
|---------------------------------------------------------|
|
|                                              ~~~
|  E  X  T.  T  T.  S  +S.. S  E.         +E   E.
|-19-19-15-----15--19-(19)s22-22b24r=====(22)-22\---------|
|-----------19--------------------------------------------|
|---------------------------------------------------------|
|---------------------------------------------------------|
|---------------------------------------------------------|
|---------------------------------------------------------|


  E  H                                  +Q                  +E
|----------------------------------------------------------------------|
|----------------------------------------------------------------------|
|-7s=9----------------------------------(9)-----------------(9)--------|
|-9s11---------------------------------(11)----------------(11)--------|
|----------------------------------------------------------------------|
|----------------------------------------------------------------------|
|
| E  S  X  X  E  T.  T  T.  E  +X   T.       T  T.  E  +X    T.  T  T.
|------------16-12-----12--16-(16)-12----------12--16-(16)--12-----12--|
|---------16--------16----------------------16------------------16-----|
|------16--------------------------------------------------------------|
|----------------------------------------------------------------------|
|----------------------------------------------------------------------|
|----------------------------------------------------------------------|


   E      H                            +Q    +E
|------------------------------------------------------------|
|------------------------------------------------------------|
|--7s=====9----------------------------(9)---(9)-------------|
|--5s=====7----------------------------(7)---(7)-------------|
|------------------------------------------------------------|
|------------------------------------------------------------|
|
|                                             ~~~~~~~~~~~~~
|  E     +T   S.  S.      S.    +S.  S  S  S  S   S  S  S.
|-14b15-(14)-12----------------------------------------------|
|----------------15b15.5-------------------------------------|
|------------------------14b15r(14)-12-----------------------|
|--------------------------------------12s14-----------12----|
|--------------------------------------------10--12-14-------|
|------------------------------------------------------------|


  E H                                +Q               +E
|-----------------------------------------------------------------|
|-----------------------------------------------------------------|
|-7s9--------------------------------(9)--------------(9)---------|
|-7s9--------------------------------(9)--------------(9)---------|
|-----------------------------------------------------------------|
|-----------------------------------------------------------------|
|
| E T  S.    +S   S  S  S  S       S  S     +S   S  S  S   S
|-----16b17r(16)-14----14---------14------------------------------|
|-------------------17----17b17.5---------------------------------|
|------------------------------------16b17r(16)-14-11-----15b15.5-|
|-----------------------------------------------------16----------|
|-----------------------------------------------------------------|
|-----------------------------------------------------------------|


   E          H                     +Q    +E
|---------------------------------------------|
|---------------------------------------------|
|--9s========11--------------------(11)--(11)-|
|--9s========11--------------------(11)--(11)-|
|---------------------------------------------|
|---------------------------------------------|
|
|                              ~~~~~
|  |--3---|
|  S. T.  T.  S.  E  S  S  T  +H
|---------------------------------------------|
|---------------------------------------------|
|---------------------------------------------|
|---------------------------------------------|
|---------------------------------------------|
|-17-16--12--17--16-17-16-14-(14)\------------|


   E  H                 +Q              +E
|------------------------------------------------|
|-11s12----------------(12)------------(12)------|
|------------------------------------------------|
|-11s12----------------(12)------------(12)------|
|------------------------------------------------|
|------------------------------------------------|
|
|  E  T  E.  E  +T   E  +T   E  +T   E       +S
|------------------------------------------------|
|------------------------------------------------|
|------------------------------------------------|
|-------16--12-(12)-14-(14)----------------------|
|---------------------------14-(14)-12------(12)-|
|------------------------------------------------|


   E      H                +Q     +E
|------------------------------------------|
|------------------------------------------|
|--8s=====9----------------(9)----(9)------|
|-10s====11---------------(11)---(11)------|
|------------------------------------------|
|------------------------------------------|
|
|  S  Q  +T   S  S  S  E.   T  E  +S  S
|------------------------------------------|
|------------------------------------------|
|------------------------------------------|
|------------------------------------------|
|-12s14-(14)-12----------------------------|
|---------------14-12-10----5s10-(10)s7----|


   E           H                                      +Q                   +E
|--------------------------------------------------------------------------------------|
|--------------------------------------------------------------------------------------|
|--7s==========8--------------------------------------(8)------------------(8)---------|
|--8s==========9--------------------------------------(9)------------------(9)---------|
|--------------------------------------------------------------------------------------|
|--------------------------------------------------------------------------------------|
|
|  T  T  T  T  T  T S  T  T  T  T  T  T S  T  T  T  T  T   T S  T  T  T  T  T   T S
|--------------------------------------------------------------------------------------|
|-19-11-19-11-12-11-9-19-11-19-11-19-11-9-19-11-19-11-19--11-9-19-11-19-11-19--11-9----|
|--------------------------------------------------------------------------------------|
|--------------------------------------------------------------------------------------|
|--------------------------------------------------------------------------------------|
|--------------------------------------------------------------------------------------|


   E           H                                        +Q                    +E
|------------------------------------------------------------------------------------------|
|------------------------------------------------------------------------------------------|
|--8s==========9----------------------------------------(9)-------------------(9)----------|
|--6s==========7----------------------------------------(7)-------------------(7)----------|
|------------------------------------------------------------------------------------------|
|------------------------------------------------------------------------------------------|
|
|  T  T  T  T  T  T  S  T  T  T  T  T  T  S  T  T  T  T  T   T  S  T  T  T  T  T   T  S
|------------------------------------------------------------------------------------------|
|-20-12-20-12-13-12-10-20-12-20-12-13-12-10-20-12-20-12-13--12-10-20-12-20-12-13--12-10----|
|------------------------------------------------------------------------------------------|
|------------------------------------------------------------------------------------------|
|------------------------------------------------------------------------------------------|
|------------------------------------------------------------------------------------------|


   E           H                                      +Q                   +E
|--------------------------------------------------------------------------------------|
|--6s==========8--------------------------------------(8)------------------(8)---------|
|--5s==========7--------------------------------------(7)------------------(7)---------|
|--3s==========5--------------------------------------(5)------------------(5)---------|
|--------------------------------------------------------------------------------------|
|--------------------------------------------------------------------------------------|
|
|  T  T  T  T  T  T S  T  T  T  T  T  T S  T  T  T  T  T   T S  T  T  T  T  T   T S
|-17-10-12-17-12-10-0-17-10-12-17-12-10-0-17-10-12-17-12--10-0-17-10-12-17-12--10-0----|
|--------------------------------------------------------------------------------------|
|--------------------------------------------------------------------------------------|
|--------------------------------------------------------------------------------------|
|--------------------------------------------------------------------------------------|
|--------------------------------------------------------------------------------------|


                                                                            D.S. al Coda
   E         H                                        +Q                    +E
|------------------------------------------------------------------------------------------|
|--8s========9----------------------------------------(9)-------------------(9)------------|
|--7s========8----------------------------------------(8)-------------------(8)------------|
|--5s========6----------------------------------------(6)-------------------(6)------------|
|------------------------------------------------------------------------------------------|
|------------------------------------------------------------------------------------------|
|
|  T T  T T  T  T  T T  T T  T T  T  T  T T  T T  T T  T   T  T T  T T  T T  T   T  T T
|-11-0-18-0-18-12-11-0-11-0-18-0-18-12-11-0-11-0-18-0-18--12-11-0-11-0-18-0-18--12-11-0----|
|------------------------------------------------------------------------------------------|
|------------------------------------------------------------------------------------------|
|------------------------------------------------------------------------------------------|
|------------------------------------------------------------------------------------------|
|------------------------------------------------------------------------------------------|


  &
  Gtrs III, VI
   |------3-------|  |------3-------|
   E  E  E  E  E  E  E  E  E  E  E  E
|-------------------------------------|
|----------12----------------12-------|
|----12----------12----12----------12-|
|-10----10----10----10----10----10----|
|-------------------------------------|
|-------------------------------------|
|
|  W
|-------------------------------------|
|-------------------------------------|
|-------------------------------------|
|-------------------------------------|
|--3----------------------------------|
|-------------------------------------|


   |-------3-------|  |------3-------|
   E   E  E  E  E  E  E  E  E  E  E  E
|-----------------------------------------|
|-----------12----------------10----------|
|-----12----------12----11----------11----|
|-10-----10----10----12----12----12-------|
|-----------------------------------------|
|-----------------------------------------|
|
| +W
|-----------------------------------------|
|-----------------------------------------|
|-----------------------------------------|
|-----------------------------------------|
|-(3)-------------------------------------|
|-----------------------------------------|


   |-------3-------|  |------3-------|
   E   E  E  E  E  E  E  E  E  E  E  E
|--------------------------------------|
|-----------12----------------12-------|
|-----12----------12----12----------12-|
|-10-----10----10----10----10----10----|
|--------------------------------------|
|--------------------------------------|
|
| +W
|--------------------------------------|
|--------------------------------------|
|--------------------------------------|
|--------------------------------------|
|-(3)----------------------------------|
|--------------------------------------|


   |-------3-------|  |------3-------|
   E   E  E  E  E  E  E  E  E  E  E  E
|-----------------------------------------|
|-----------12----------------10----------|
|-----12----------12----11----------11----|
|-10-----10----10----12----12----12-------|
|-----------------------------------------|
|-----------------------------------------|
|
| +W
|-----------------------------------------|
|-----------------------------------------|
|-----------------------------------------|
|-----------------------------------------|
|-(3)-------------------------------------|
|-----------------------------------------|


   |-------3-------|  |------3-------|
   E   E  E  E  E  E  E  E  E  E  E  E
|--------------------------------------|
|-----------12----------------12-------|
|-----12----------12----12----------12-|
|-10-----10----10----10----10----10----|
|--------------------------------------|
|--------------------------------------|
|
|  W
|--------------------------------------|
|--------------------------------------|
|-----------------------------------|
|--------------------------------------|
|--------------------------------------|
|--------------------------------------|


    |-------3--------|  |------3-------|
    E    E  E  E  E  E  E  E  E  E  E  E
|-------------------------------------------|
|-------------12----------------10----------|
|-------12----------12----11----------11----|
|--10------10----10----12----12----12-------|
|-------------------------------------------|
|-------------------------------------------|
|
|   ~~~~~
|  +W
|-------------------------------------------|
|-------------------------------------------|
|-()-------------------------------------|
|-------------------------------------------|
|-------------------------------------------|
|-------------------------------------------|


   |-------3-------|  |------3-------|
   E   E  E  E  E  E  E  E  E  E  E  E
|--------------------------------------|
|-----------12----------------12-------|
|-----12----------12----12----------12-|
|-10-----10----10----10----10----10----|
|--------------------------------------|
|--------------------------------------|
|
|  W
|--------------------------------------|
|--------------------------------------|
|-----------------------------------|
|--------------------------------------|
|--------------------------------------|
|--------------------------------------|


    |-------3--------|  |-------3-------|
    E    E  E  E  E  E  E   E  E  E  E  E
|--------------------------------------------|
|-------------12-----------------10----------|
|-------12----------12-----11----------11----|
|--10------10----10----12-----12----12-------|
|--------------------------------------------|
|--------------------------------------------|
|
|                       \4
|  +H                   H
|--------------------------------------------|
|--------------------------------------------|
|-()-----------------7--------------------|
|--------------------------------------------|
|--------------------------------------------|
|--------------------------------------------|


   |------3-------|  |-------3--------|
   E  E  E  E  E  E  E  E   E   E  E  E
|---------------------------------------|
|----------12------------------12-------|
|----12----------12----12------------12-|
|-10----10----10----10-----10-----10----|
|---------------------------------------|
|---------------------------------------|
|
|                    ~~
|  |---3----|  |3-|
|  E  E  E  E  E  E  E  E.  E.
|---------------------------------------|
|---------------------------------------|
|---------------------------------------|
|--5--4--2--0--------0--0---2-----------|
|--------------0s=2---------------------|
|---------------------------------------|


   |--------3---------|   |--------3---------|
   E  E   E   E   E   E   E   E   E   E   E  E
|-------------------------------------------------|
|------------12----------------------10-----------|
|----12--------------12------11-------------11----|
|-10-----10------10------12------12------12-------|
|-------------------------------------------------|
|-------------------------------------------------|
|
|  |--------------3---------------|
|  E  E   E   E   E   E   E   E   E   Q
|-------------------------------------------------|
|-------------------------------------------------|
|-------------------------------------------|
|--x----------------------------------|
|----------------------------------------|
|-------------------------------------------------|


   |------3-------|  |--------3--------|
   E  E  E  E  E  E  E  E     E  E  E  E
|----------------------------------------|
|----------12-------------------12-------|
|----12----------12----12-------------12-|
|-10----10----10----10-------10----10----|
|----------------------------------------|
|----------------------------------------|
|
|                    ~~
|  |---3----|  |3-|
|  E  E  E  E  E  E  E    Q.
|----------------------------------------|
|----------------------------------------|
|----------------------------------------|
|--5--4--2--0--------0----0--------------|
|--------------0s=2----------------------|
|----------------------------------------|


   |------3-------|      |----------------3-----------------|
   E  E  E  E  E  E      E      E      E      E      E      E
|-------------------------------------------------------------------|
|----------12--------------------------------10---------------------|
|----12----------12------------11--------------------------11-------|
|-10----10----10--------12------------12------------12--------------|
|-------------------------------------------------------------------|
|-------------------------------------------------------------------|
|
|  |---3----|  |-----------------------3-----------------------|
|  E  E  E  E  E     E      E      E      E      E      E      E
|-------------------------------------------------------------------|
|-------------------------------------------------------------------|
|----------------------------------------------------|
|--0--2--2--2--x----------------------------------------------|
|-------------------------------------------------------------------|
|-------------------------------------------------------------------|


   |------3-------|  |---------3----------|
   E  E  E  E  E  E  E   E  E    E     E  E
|-------------------------------------------|
|----------12-------------------12----------|
|----12----------12-----12---------------12-|
|-10----10----10----10-----10---------10----|
|-------------------------------------------|
|-------------------------------------------|
|
|  |---3----|  |3-|
|  E  E  E  E  E  E  E.       E    E.
|-------------------------------------------|
|-------------------------------------------|
|-------------------------------------------|
|--5--4--2--0--------0--------0s===2--------|
|--------------0s=2-------------------------|
|-------------------------------------------|


   |------------3------------|     |----------3----------|
   E      E     E  E  E      E     E  E  E      E     E  E
|------------------------------------------------------------|
|-----------------12---------------------------10------------|
|--------12-----------------12-------11-----------------11---|
|-10-----------10----10-----------12----12-----------12------|
|------------------------------------------------------------|
|------------------------------------------------------------|
|
|  |-------3-------|  |-------3-------|  |-------3-------|
|  S +S.    S.  E  E  S +S.    S.  E  E  S +S.    S.  E  E
|------------------------------------------------------------|
|------------------------------------------------------------|
|------------------------------------------------------------|
|--2-(2)s===4---4--4--4-(4)s===5---5--5--5-(5)s===7---7--7---|
|------------------------------------------------------------|
|------------------------------------------------------------|


   |------------3------------|     |----------3----------|
   E      E     E  E  E      E     E  E  E      E     E  E
|----------------------------------------------------------|
|-----------------12---------------------------12----------|
|--------12-----------------12-------12-----------------12-|
|-10-----------10----10-----------10----10-----------10----|
|----------------------------------------------------------|
|----------------------------------------------------------|
|
|  |-------3-------|  |-------3-------|  |-------3-------|
|  S +S.    S.  E  E  S +S.    S.  E  E  S +S.    S.  E  E
|----------------------------------------------------------|
|----------------------------------------------------------|
|----------------------------------------------------------|
|--7-(7)s===9---9--9--9-(9)s===7---7--7--7-(7)s===9---9--9-|
|----------------------------------------------------------|
|----------------------------------------------------------|


   |-------3--------|  |------3-------|
   E  E   E  E  E   E  E  E  E  E  E  E
|------------------------------------------*|
|-----------12-----------------10----------*|
|----12------------12----11----------11----*|
|-10-----10----10-----12----12----12-------*|
|------------------------------------------*|
|------------------------------------------*|
|
|  ~~~~~~~~~~~~~~~~
|  |3-|      |3-|      |3-|
|  Q +Q      Q +Q      Q  Q
|------------------------------------------*|
|------------------------------------------*|
|------------------------------------------*|
|--9-(9)-----9-(9)-----9s=2----------------*|
|------------------------------------------*|
|------------------------------------------*|


Duration Legend
---------------
W - whole; H - half; Q - quarter; E - 8th; S - 16th; T - 32nd; X - 64th; a - acciaccatura
+ - note tied to previous; . - note dotted; .. - note double dotted
Uncapitalized letters represent notes that are staccato (1/2 duration)
Irregular groupings are notated above the duration line
Duration letters will always appear directly above the note/fret number it represents the
duration for.  Duration letters with no fret number below them represent rests.  Multi-
bar rests are notated in the form Wxn, where n is the number of bars to rest for.  Low
melody durations appear below the staff

Tablature Legend
----------------
 h   - hammer-on
 p   - pull-off
 b   - bend
 pb  - pre-bend
 r   - bend release (if no number after the r, then release immediately)
 /\  - slide into or out of (from/to "nowhere")
 s   - legato slide
 S   - shift slide
  - natural harmonic
[n]  - artificial harmonic
n(n) - tapped harmonic
 ~   - vibrato
 tr  - trill
 T   - tap
 TP  - trem. picking
 PM  - palm muting
\n/  - tremolo bar dip; n = amount to dip
 \n  - tremolo bar down
 n/  - tremolo bar up
/n\  - tremolo bar inverted dip
 =   - hold bend; also acts as connecting device for hammers/pulls
   - volume swell (louder/softer)
 x   - on rhythm slash represents muted slash
 o   - on rhythm slash represents single note slash

Misc Legend
-----------
 |  - bar
||  - double bar
||o - repeat start
o|| - repeat end
*|  - double bar (ending)
 :  - bar (freetime)
 $  - Segno
 &  - Coda
Tempo markers -  = BPM(8/16=s8/s16), where s8 = swing 8ths, s16 = swing 16ths


***************************************************************************************
* Generated using Power Tab Editor by Brad Larsen - http://powertab.guitarnetwork.org *
***************************************************************************************
Comments