Satriani Joe - Strange Chords & Tabs

 

Strange Chords & Tabs

Satriani Joe Chords & Tabs

Version: 1 Type: Tab 0 ratings
1 star 2 stars 3 stars 4 stars 5 stars
comments

Strange Tab

Joe Satriani - Strange (From the album "Flying in a Blue Dream")

Submitted by Mike Robertson (Weonlywonfiveone)



-|*------------------------------------------------------|
-|6-6-6-6--x-3---3---x-3--x-3---------------------------*|
-|4-4-4-4--x-4---5---x-4--x-4---------x-4---x-5----------|
-|------------------------------------x-3---x-5----------|
-|*---------------------------------------------0-3-4--5*|
-|-------------------------------------------------------|
 |Guitar 1 ^                                                                  
 |
-|----------------10-10-x-10-10-x-10---------------------|
-|*---------------10-12-x-10-12-x-12--------------------*|
-|----------------10-10-x-10-10-x-10---------------------|
-|-------------------------------------------------------|
-|*-----------------------------------------------------*|
-|-------------------------------------------------------|
 Guitar 2 ^                                                                   


----------------------------------------------------------|
----------------------------------------------------------|
----9p7--10---9------9p7-10---9------9p7-10---9p7---------|
--7-9p7--10-7-9-7--7-9p7-10-7-9-7--7-9p7-10-7-9p7-7-7-7---|
--5---------5---5--5--------5---5--5--------5-----5-8-5---|
----------------------------------------------------------|
 Guitar 3 ^                                                                   

                                                                              
 

Guitar solo
w/bar
---------------------------20----22b23-22-20-----20----------------------------
-20h22p20---16----------20----20--------------20----20-------------------------
---------------17~~~~-------------------------------------8-10-8----8-10-8----
--------------------------------------------------------10--------10--------10-
-------------------------------------------------------------------------------
-------------------------------------------------------------------------------

									
-------------------------------------------------------------------------------
----------------------8-11-8----8----------------------------------------------
-8-10--8----8---10-11--------11---11-10-8-------------------------x--10b12-----
---------10-------------------------------10-8--------------------x--------10--
-----------------------------------------------10-8----8~~-/(17)--------------
----------------------------------------------------11-------------------------

    AH	    AH				    tr	tr	tr	tr	  tr
-------------------------------------------------------------------------------
-------------------------------------------------------------------------------
-------------------------------------------------------------------------------
-10b12--10-8----10b13rb10--8---------------------------------------------------
-------------10------------8-----8~~~~------1-(3)--3-(6)--6-(8)--8-(10)-10-(13)
------------------------------11-------11-------------------------------------


----------------------20p15----20p15----20p15----20p15----20p15----20p15-------
----------------------------19-------19-------19-------19-------19-------18----
-------------------------------------------------------------------------------
--------------x--/x-----------------------------------------------------------
-13b15-13-13-x--/x-----------------------------------------------------------
-------------------------------------------------------------------------------


-18p15----20p15----18p15----20p15-20p15----18p15-18p15----20p15-20p15----------
-------18-------18-------18-------------18-------------18-------------18-x----
-------------------------------------------------------------------------x----
-------------------------------------------------------------------------------
-------------------------------------------------------------------------------
-------------------------------------------------------------------------------

									  w/bar (gradual descent)
-22b23rb22--18-------18--18--14-13-11------------------------------------------
---------------18b20------------------13-11----11~~~~--x----------------------
--------------------------------------------12------------0---h2p0--h2p0-------
-------------------------------------------------------------------------------
-------------------------------------------------------------------------------
-------------------------------------------------------------------------------

 H w/bar (release)  w/bar
-------------------------------------------------------------------------------
----------------------------18b20rb18--16--------------------------------------
-2------------------5---------------------17-15--------------------------------
------------------------------------------------17-15----17-15-----------------
------------------------------------------------------18--------18-15-18-18-15-
-------------------------------------------------------------------------------


-------------------------------------------------------------------------------
-------------------------------------------------------------------------------
---------------------------------------109~~~~--7--5--7-9/109--5-7--9/10-----
--------------------------x---x-x-x--------------------------------------------
-18-18-15-------------------------------87~~~~--5--3--5-7/87---3-5--7/8------
----------18-15-18~~~~---------------------------------------------------------

[ Tab from: http://www.guitartabs.cc/tabs/s/satriani_joe/strange_tab.html ]
-------------------------------------------------------------------------------
-------------------------------------------------------------------------------
-10/12--12/14--14/16--16-x-16-x-16/1816--1210---------10/12-12-12-12-12/14---
-------------------------------------------------------------------------------
--8/10--10/12--12/14--14-x-14-x-14/1614--108----83p0--8/10----10----10/12---
-------------------------------------------------------------------------------


--------------------------------------------17--17-----19-----20-----15--------
------------------------18----18----15-----------------------------------------
----14--------16------------------------------14--14/16--16/17--17-17---1210--
---------------------------15----15---12/14------------------------------------
-12----12/14-----14/15---------------------------------------------------------
-------------------------------------------------------------------------------

								semi harm [-----------|
-13-------15-------17----17----------17----------------------------------------
-------------------------------15-------15-------------------------------------
----10/12----12/14----14----14----14-------14---7-7-7-7-7-7-7-7-7-7-7----------
-------------------------------------------------------------------------------
-------------------------------------------------------------------------------
-------------------------------------------------------------------------------



Guitar solo II

-12p10-12p10----10-12p10----10-12p10-------12p10-------12p10-------12p10-------
-------------12----------12----------12p10-------12p10-------12p10-------12p10-
-------------------------------------------------------------------------------
-------------------------------------------------------------------------------
-------------------------------------------------------------------------------
-------------------------------------------------------------------------------


-12p10-------12p10-----------------12p10-------12p10----------10----------10---
-------12p10-------12p10--12/1312-------12p10-------12p10h12----12p10-12----12
-------------------------------------------------------------------------------
-------------------------------------------------------------------------------
-------------------------------------------------------------------------------
-------------------------------------------------------------------------------


----10-12p10----12p10-------12p10-------12p10-------12p10--------7-------------
-10----------12-------12p10-------12p10-------12p10-------12p10----10-8---8-10-
------------------------------------------------------------------------9------
-------------------------------------------------------------------------------
-------------------------------------------------------------------------------
-------------------------------------------------------------------------------

									tr
-------------------------------------------------------------------------------
-8-------------------------------8h10p8---------------------8--12p10p8---------
---9-7---7-9-7---7-9-7-9-7---7-9--------9-7-9-7---7-9-7-(9)------------9p7h9p7-
-------9-------9-----------9--------------------9------------------------------
-------------------------------------------------------------------------------
-------------------------------------------------------------------------------


-------------------------------------------------------------------------------
-------------------------------------------------------------------------------
-9p7---------------------------------------------------------------------------
-----9p7----9p7-xp5h7p5h7-7h9p7h9p75h7p5--------------------------------------
---------10----------------------------------/10h12-107-7h10-75-5h7-5-3h5-/5h7
------------------------------------------7/-----------------------------------

		w/bar (pull bar up)
------------------------------------------------15p12--------------------------
-------------------0----------------------------------13------12p8-------------
-------------------0-------------9~~~~~~~~~~~~-----------109------109--------
------------------------------------------------------------------------10-9-7-
-53h5-3h5-3~~-----------------------------------------------------------------
-------------------------------------------------------------------------------


-------------------------------------------------------------------------------
-------------------------------------------------------------------------------
---------------54---4---------------------------------------------------------
----75--9-7-7-----7---5-7-32-3-2-3-------------------2h3h5p3p2---2h3h5p3p2---
-10---------------------------------2-3-2~~~~---2h3h5-----------5-----------5-
-------------------------------------------------------------------------------

-------------------------------------------------------------------------------
-------------------------------------------------------------------------------
------------------------------------------4h5h7p5p4----------------------------
-2h3h5p3p2-3h5h7p5p3------------3h5p3h5h7------------/9p7p53-3h5h7p3-3h5h7----
---------------------h7p5p3h5h7------------------------------------------------
-------------------------------------------------------------------------------


-------------------------------------------------------------------------------
-------------------------------------------------------------------------------
-4h5h7p5p4/5h7h9p7p5-----------------5h7h9p7p5---------9h10h12p10p9------------
---------------------9p7---5h7h9p7p5-----------9h10h12--------------h12p9-x----
-------------------------------------------------------------------------------
-------------------------------------------------------------------------------

							trT	tr   T
------------------------------------------------20--(22)-----------------------
---------------------------------------15-(17)---------------------------------
-9h10h12p10p9/10h12h14p12p10-12h14-x------------------------------------------
-------------------------------------------------------------------------------
-------------------------------------------------------------------------------
-------------------------------------------------------------------------------


Phew! Enjoy! :-D
Comments