Satriani Joe - Sleepwalk Chords & Tabs

 

Sleepwalk Chords & Tabs

Satriani Joe Chords & Tabs

Version: 1 Type: Tab 1 rating
1 star 2 stars 3 stars 4 stars 5 stars
comments

Sleepwalk Tab

   
From: "Ricardo Bustos" 
Subject: s/satriani_joe/sleep_walk.tab
Date: Thu, 04 Jul 2002 01:38:18 +0000

Song: Sleep Walk
Artist: Joe Satriani
Album: Strange Beautiful Music


Tabbed & transcribed by Ricardo Bustos O.
email: RBO567@Hotmail.com

pm = palm muting
h = hammer on
p = pull off
x = harmonic note
/ = slide
* = stay in that note for certain time
b = bend


Here`s a nice ballad by Mr. Satriani. Enjoy it!

e--------------------------------------------
B-----------11----11/------------------------
G-----------10----10/------------------------
D--/11-11---11-11-11-----------11------------
A--/8--8-------------------12--12---12--11---
E--------------------------------------------



e--16/18---(18)/26/20*-----------------------
B--------------------------------------------
G--------------------------------------------
D--------------------------------------------
A--------------------------------------------
E--------------------------------------------



e--------------------------------------------
B----------------14*-------------------------
G----------------------13*------11-13-13b(14)
D--8-8-8-8/10-------------------13-15-15b(16)
A--9-9-9-9/11--------------------------------
E--------------------------------------------



e--------------------------------------------
B--------------/14*--------------------------
G-13-11-----------------13*---11-13-13b(14)--
D-15-13-----------------------13-15-15b(16)--
A--------------------------------------------
E--------------------------------------------



e--------------------------------------------
B--------------------------------------------
G-13-11---10/13*--10-13-10-------------------
D-15-----------------------11----------------
A-----------------------------13*------------
E--------------------------------------------




e--------------9-13-9------------------------
B-----------11-------------------------------
G--------10----------------------------------
D-----11-------------------------------------
A--13----------------------11-11-11----------
E--------------------------------------------




e-------------------------16/18-(18)/26/20---
B--------------------------------------------
G--------------------------------------------
D-11/13-11/13--13--13------------------------
A-13/15-13/15--15--15------------------------
E--------------------------------------------




e---------------------------------------------
B---------------------------------------------
G----------------14*---/9*---11-13-13b(14)----
D-8-8-8-8/10-----------------13-15-15b(16)----
A-9-9-9-9/11----------------------------------
E---------------------------------------------



e---------------------------------------------
B----------14*----14--------------------------
G-13-11--------15----15*----11-13-13b(14)-----
D-15-13---------------------13-15-15b(16)-----
A---------------------------------------------
E---------------------------------------------



e-------------------------------------------13
B-----------------------------------------14--
G-13-11----13*--10-13-10----------------15----
D-15-13------------------11-----------15------
A---------------------------13*-----16--------
E---------------------------------17----------



[ Tab from: http://www.guitartabs.cc/tabs/s/satriani_joe/sleepwalk_tab.html ]
e-18------------------------------------------
B---------------------------------------------
G----------------------11/13-11/13-11/13------
D--------11-11-11-11---13/15-13/15-13/15-11*/-
A---------------------------------------------
E---------------------------------------------




e---------------------------------------------
B----------------------11*-11*---16/18*-------
G---------------------------------------------
D-11-11-11-11/15----11------------------------
A-12-12-12-12/16------------------------------
E---------------------------------------------




e---------------------------------------------
B-16-14------------16/18-16-----14------------
G-------14-14*---------------14----13-13*-----
D---------------------------------------------
A---------------------------------------------
E---------------------------------------------




e---------------------------------------------
B----------------------------14b----14b-------
G-------15*-------13*-----16-----16----16-13--
D-13-15--------13-----------------------------
A---------------------------------------------
E---------------------------------------------




e---------------------------------------------
B---------------------------------------------
G---------------------------------------------
D-16-14-------16-14-------14------------------
A-------16-14-------16-14----16---------------
E---------------------------------------------



e---------------------------------------------
B-------16/18-16---14-16-----------16/18-16---
G-15-15-------------------14-14---------------
D---------------------------------------------
A---------------------------------------------
E---------------------------------------------



e---------------------------------------------
B---------------------------------------------
G-14--13-13--13/16-13/16--13/16--/13----------
D--------15--15/18-15/18--15/18--/15----------
A---------------------------------------------
E---------------------------------------------



e--12-9---------------------------------------
B-------12-9------------------14*-------------
G------------11-9-----------------13*---------
D-----------------11-9------------------------
A----------------------11---------------------
E---------------------------------------------



e---------------------------------------------
B----------------------------14*--------------
G--11-13-13b(14)-13-11------------13-13*/-----
D--13-15-15b(16)-15-13------------------------
A---------------------------------------------
E---------------------------------------------



e---------------------------------------------
B---------------------------------------------
G--11-13-13b(14)-13-11----11/13---10-13-10----
D--13-15-15b(16)-15-13------------------------
A---------------------------------------------
E---------------------------------------------



e---------------------------------------------
B---------------------------------------------
G---------------------------6---10-10---------
D-11------------------------8---11-11---------
A----13-------16-16-16-----9---9--------------
E---------------------------------------------



e---------------------------------------------
B---------------------------------------------
G---------------------------------------------
D-(10)/(8)--/(6)------------------------------
A-(11)/(10)-/(8)------------------------------
E---------------------------------------------
here don`t play strings only slide



e---16/18--(18)/26/20*------------------------
B---------------------------------------------
G----------------------------------10---------
D-------------------------------10------------
A----------------------------11---------------
E-------------------------13------------------

Comments