Satriani Joe - Raspberry Jam Delta V Chords & Tabs

 

Raspberry Jam Delta V Chords & Tabs

Satriani Joe Chords & Tabs

Version: 1 Type: Tab 0 ratings
1 star 2 stars 3 stars 4 stars 5 stars
comments

Raspberry Jam Delta V Tab

Raspberry Jam Delta-v
Album: Crystal Planet by Joe Satriani

Satriani is an awesome musician, and it is extremely hard to reproduce his work, 
although I am pretty such the intro is right, the rest of the riffs are close but 
definitely not perfect, any corrections or additions would be greatly appreciated. 
The Key is E Major. Some of the parts use an octave pedal.

Intro:
E|------------12p11p0------------------------|-----------12p11p0--------------------|
B|--10p0-12p0---------10p0-12p0-10h12p0-10p0-|-10p0-12p0---------5p0-7p0-9h10p0-9p0-|
G|-------------------------------------------|--------------------------------------|
D|-------------------------------------------|--------------------------------------|
A|-------------------------------------------|--------------------------------------|
E|-------------------------------------------|--------------------------------------|

E|------------12p11p0------------------------|-----------12p11p0--------------------|
B|--10p0-12p0---------10p0-12p0-10h12p0-10p0-|-10p0-12p0---------5p0-7p0-9h10p0-9p0-|
G|-------------------------------------------|--------------------------------------|
D|-------------------------------------------|--------------------------------------|
A|-------------------------------------------|--------------------------------------|
E|-------------------------------------------|--------------------------------------|

E|------------12p11p0------------------------|-----------12p11p0--------------------|
B|--10p0-12p0---------10p0-12p0-10h12p0-10p0-|-10p0-12p0---------5p0-7p0-9h10p0-9p0-|
G|-------------------------------------------|--------------------------------------|
D|-------------------------------------------|--------------------------------------|
A|-------------------------------------------|--------------------------------------|
E|-------------------------------------------|--------------------------------------|
[ Tab from: http://www.guitartabs.cc/tabs/s/satriani_joe/raspberry_jam_delta_v_tab.html ]
                                               W/ Octave Pedal
E|------------12p11p0------------------------|-12p11p0--------------------------7---|
B|--10p0-12p0---------10p0-12p0-10h12p0-10p0-|---------12p10p0-10p9p0-9p7p0-7-------|
G|-------------------------------------------|--------------------------------------|
D|-------------------------------------------|--------------------------------------|
A|-------------------------------------------|--------------------------------------|
E|-------------------------------------------|--------------------------------------|
End Intro:

All I have is a little bit of the beginning of this next part, listen to the album to 
get the timing, the slides are extremely weird…
E|-------------------|--------------------|-------------------------|-----------------|
B|-------------------|------------------9-|-10—9h10p9\7/9---\7---p0-|---------------9-|
G|-11-----9----------|-----------9--11----|-------------------------|----------9-11---|
D|-------------------|--------------------|-------------------------|-----------------|
A|-------------------|--------------------|-------------------------|-----------------|
E|-------------------|--------------------|-------------------------|-----------------|

E|-------------------------|----------------|-----------------------------------------|
B|-10-9h10p9\7/9---/12--\9-|-----------9-10-|-/11-\10--9--7--h9--p0--0----------------|
G|-------------------------|--------11------|-----------------------------------------|
D|-------------------------|----------------|-----------------------------------------|
A|-------------------------|----------------|-----------------------------------------|
E|-------------------------|----------------|-----------------------------------------|
I couldn’t get the rest tabbed after this, very hard to hear exact pitches with Satch’s 
style and effects. All I can tell you is that the song is in E Major and sticks very 
close to its key.

Aside from the Intro, this is the main riff of the song and appears later in the song.
                                                                W/ Octave Pedal
E|-----------------------------------------------------------------7------------------|
B|-------------------------------------------------------------------------7----------|
G|------------------------------------------------------------------------------------|
D|------------------------9------------------------13---------------------------------|
A|---------------------9-----------------------12-------------------------------------|
E|-----7------------------------------------------------------------------------------|

The outro is just variations of the intro, not to hard to figure out the pattern when 
you listen to the CD. Enjoy!

Tabbed By: Alan Schrader
E-Mail: tyrantduke@hotmail.com
GTU Screenname: heavymetal246
Comments