Satriani Joe - Lights Of Heaven Solo Chords & Tabs

 

Lights Of Heaven Solo Chords & Tabs

Satriani Joe Chords & Tabs

Version: 1 Type: Tab 0 ratings
1 star 2 stars 3 stars 4 stars 5 stars
comments

Lights Of Heaven Solo Tab

#----------------------------------PLEASE NOTE--------------------------------#
#This file is the author's own work and represents their interpretation of the#
#song. You may only use this file for private study, scholarship, or research.#
#-----------------------------------------------------------------------------#
#-- File created with Instab - http://www.pconline.com/~smcarey/instab.html --#
#-----------------------------------------------------------------------------#

Author/Artist: joe satriani
Title: lights of heaven[solo]
Album: crystal planet
Transcribed by: chris jackson
Email: fender88@rock.com

 accurate solo of lights of heaven. I am going to post the
Mountain song and Secret Prayer within a couple of weeks. 

---------17-15p12----12-----------------12------------------------------------
-17b19------------15----12h15-12------------12--------------------------------
---------------------------------14b16----------14b16-12-14----12-11b12-------
------------------------------------------------------------14----------------
------------------------------------------------------------------------------
------------------------------------------------------------------------------
                                                                              

-----------------|------------3h5h7p5p3---------------------------------------
-----------------|-3----3h5h7------------7p5p3-5h7-5p3------------------------
-9\7-9\7-9\7-7-4-|---6----------------------------------7p5p4h5h7p5p4h5h7h9p7-
-----------------|------------------------------------------------------------
-----------------|------------------------------------------------------------
-----------------|------------------------------------------------------------
                                                                              
[ Tab from: http://www.guitartabs.cc/tabs/s/satriani_joe/lights_of_heaven_solo_tab.html ]
------------------------------------------|-----------------------------------
------------------------------------------|----------------------8-10-12/15---
-5----------------------------------------|--------7-9-11-7-9-11--------------
---9----7p5p4h5h7p5p4h5h7h9p7p5-----------|-7-9-10----------------------------
--------------------------------5/7-9-10--|-----------------------------------
------------------------------------------|-----------------------------------
                                                                              

-----14---------14-15-----------------------14-15-----14-15-17-14-15-17-19----
-17------15-17-----------------------15-17---------17-------------------------
------------------------------16/17-------------------------------------------
------------------------------------------------------------------------------
------------------------------------------------------------------------------
------------------------------------------------------------------------------
                                                                              

-15-17--------15--------------17b19--15-----12-14h15-12-14b15-12----12--------
-----------19-----19-17\15-15-----------17-----------------------15----15-13--
------------------------------------------------------------------------------
------------------------------------------------------------------------------
------------------------------------------------------------------------------
------------------------------------------------------------------------------
                                                                              

------------------------------------------------------------------------------
-12-15------------------------------------------------------------------------
--------14b16-14p12-----------------------------------------------------------
--------------------14-12-----------------------------------------------------
--------------------------14-12-10----------10h12-----------------------------
-----------------------------------12-10-12-----------------------------------
                                                                              

Comments