Satriani Joe - Forgotten Part Chords & Tabs

 

Forgotten Part Chords & Tabs

Satriani Joe Chords & Tabs

Version: 1 Type: Tab 0 ratings
1 star 2 stars 3 stars 4 stars 5 stars
comments

Forgotten Part Tab

Satriani - the forgotten (part two)
-----------------------------------
i am not a great guitarist, but no one else did that so i had to try.
have fun 
:)

try to put your soul into this song, it could help...

Solo guitar:

E||--------------------|-------------------|--------------------|
B||--5h6p5-------------|--5h6p6------------|--------------------|
G||--------7--5/7~~~~~-|--------7--5/7/9~~~|~~~~~~~~\-----------|
D||--------------------|-------------------|--------------------|
A||--------------------|-------------------|--------------------|
E||--------------------|-------------------|--------------------|

                        harmonics
|--------------------|------------------------|--------------------|
|--5h6p5-------------|------------------------|--------------------|
|--------7--5/7~~~~~-|--5-7-7/9--7-5-7-7/9-5~~|~~~~~~~~~-----------|
|--------------------|------------------------|--------------------|
|--------------------|------------------------|--------------------|
|--------------------|------------------------|--------------------|
[ Tab from: http://www.guitartabs.cc/tabs/s/satriani_joe/forgotten_part_tab.html ]
                                                          
-----------------|------------------|----------------------------|
-----------------|------------------|----------------------------|
-----/5--/7--/9--|-5~~~~~~\-----5-7-|-7/9--7-5-7--7/9~~~~~~~~~---|
-/7--------------|------------7-----|----------------------------|
-----------------|------------------|----------------------------|
-----------------|------------------|----------------------------|
                                                         
|--------------------|------------------------|--------------------|
|--5h6p5-------------|------------------------|--------------------|
|--------7--5/7~~~~~-|--5-7-7/9--7-5-7-7/9-5~~|~~~~~~~~~-----------|
|--------------------|------------------------|--------------------|
|--------------------|------------------------|--------------------|
|--------------------|------------------------|--------------------|
                                                                  
Chorus - rhythm (heavy distortion):
-----|-----------------------|---------------------|
-----|-----------------------|---------------------|
-----|-----------------------|*--------------------|
-----|-----------------------|*--------------------|
-\-\-|-4---4-x--4-4---4-x--4-|-5---5-x--5-5--------|
-\-\-|-2---2-x--2-2---2-x--2-|-3---3-x--3-3~~-2~~~-|

|-----------------------|----------------------|
|-----------------------|----------------------|
|-----------------------|----------------------|
|-----------------------|----------------------|
|-2---2-x--2-2---2-x--2-|-9---9-x--9-9---9-x-9-|
|-0---0-x--0-0---0-x--0-|-7---7-x--7-7---7-x-7-|

|-----------------------|----------------------||
|-----------------------|----------------------||
|-----------------------|---------------------*||
|-----------------------|---------------------*||
|-7---7-x--7-7---7-x--7-|-9---9-x--9-9---9-x-9-||
|-5---5-x--5-5---5-x--5-|-7---7-x--7-7---7-x-7-||
Comments