Satanic Surfers - Sunshiny Day Chords & Tabs

 

Sunshiny Day Chords & Tabs

Satanic Surfers Chords & Tabs

Version: 2 Type: Bass Tab 0 ratings
1 star 2 stars 3 stars 4 stars 5 stars
comments

Sunshiny Day Bass Tab

Satanic Surfers - Sunshiny Day
>From the Album: Keep Out
Tabbed by Robert Miller (arcane@sk.sympatico.ca)

This is a great song.  It's pretty straight forward, with only one
part that I am not completely sure of.  If you have any comments/
question/corrections, please drop me a line.  I didn't figure out
the correct timing on this, so just check out the CD to figure it 
out.

INTRO:
G||-----------------------
D||-----------------------
A||-1>-3-5-6>-5-3---------  X 2
E||----------------3>-1>--

VERSE:
G||--------------------------
D||----------------------3>--
A||-1>-6>-------1>-6>--------
E||-------3>-1>-------3>-----

(This next part I'm not quite sure of, but it sounds pretty close.)
G||----------------------------------------------------
D||----------------------------------------------------
A||-1>----------6>---------------1-1-5-6-6-7-8-8-9-10--  X 2
E||----------------------------------------------------
   "Is there anything that I can do?" 
CHORUS:
G||----------------------|R==========R|
D||----------------------|R==========R|
A||------------------6>--|R==========R|
E||-3>-------------------|R==========R|
   "Please, don't be sad on a sunshiny"

BRIDGE:
G||-----------------------------------------------
D||-----------------------------------------------
A||-1>-3-5-6>-5-3-------6-5>-1>-3-5-6>-5-3--------
E||----------------3>-1--------------------3>-1>--
   "day."
[ Tab from: http://www.guitartabs.cc/tabs/s/satanic_surfers/sunshiny_day_btab_ver_2.html ]
VERSE 2:
G||----R----R----R------R----R----R----R------R
D||----R----R----R------R----R----R----R-3333-R
A||-11-R----R-66-R------R-11-R----R-66-R------R
E||----R-33-R----R-1111-R----R-33-R----R------R

G||-------------
D||-------------
A||-1>----6>----
E||----3>----1>-

CHORUS:
G||----------------------|R==========R|
D||----------------------|R==========R|
A||------------------6>--|R==========R|
E||-3>-------------------|R==========R|
   "Please, don't be sad on a sunshiny"

BRIDGE:
G||-------------------------------------------
D||-------------------------------------------
A||-1>-3-5-6>-5-3--------1>-3-5-6>-5-3--------
E||---------------3>-1>----------------3>-1>--
   "day."

VERSE 3:
G||--------------------------
D||----------------------3>--
A||-1>-6>-------1>-6>--------
E||-------3>-1>-------3>-----

G||----------------------------------------------------
D||----------------------------------------------------
A||-1>----------6>---------------1-1-5-6-6-7-8-8-9-10--  X 2
E||----------------------------------------------------
   "Is there anything that I can do?"

CHORUS:
G||-------------------------------------------------|R==========R|
D||-------------------------------------------------|R==========R|
A||-------------6>----------------------6>----------|R==========R|
E||-3>-----------------------3>---------------------|R==========R|
   "Cuz I ain't gonna waste, no I ain't gonna waste this sunshiny"

OUTRO:
G||---------------------------------------------------
D||---------------------------------------------------
A||-1>-3-5-6>-5-3--------1>-3-5-6>-5-3-----------1-1--
E||----------------3>-1>----------------3>-1>-3>------
   "day."

By Satanic Surfers
Tabbed by Robert Miller




Comments