Satanic Surfers - Before Its Too Late Chords & Tabs

 

Before Its Too Late Chords & Tabs

Satanic Surfers Chords & Tabs

Version: 1 Type: Tab 0 ratings
1 star 2 stars 3 stars 4 stars 5 stars
comments

Before Its Too Late Tab

   
------------------------------------------------------------------------------- 
BEFORE IT'S TOO LATE - Satanic Surfers 
------------------------------------------------------------------------------- 

Intro: 
e-|---------------------------|---------------------------------| 
B-|---------------------------|---------------------------------| 
G-|---------------------------|---------------------------------| 
D-|-9-9-5---11-11-6-6-6-7-7-7-|-7-7-7-7-7-7-7-7-7-7-7-7-7-7-7-7-| 
A-|-7-7-5-7--9--9-4-4-4-5-5-5-|-5-5-5-5-5-5-5-5-5-5-5-5-5-5-5-5-| 
E-|-------5-------------------|---------------------------------| 

Verse: 
e-|--------------------------------------------------------------------- 
B-|--------------------------------------------------------------------- 
G-|--------------------------------------------------------------------- 
D-|--------------------------------------------------------------------- 
A-|-7-7-7-7-7-7-----5-4-4-4-4-4-4-4-4-7-7-7-7-7-7-----5-4-4-4-4-4-4-4-4- 
E-|-5-5-5-5-5-5-5h7---2-2-2-2-2-2-2-2-5-5-5-5-5-5-5h7---2-2-2-2-2-2-2-2- 

e-|-------------------------------------|---------------------------| 
B-|-------------------------------------|---------------------------| 
G-|-------------------------------------|---------------------7h9---| 
D-|-7-7-7-7-7-7-7-7-9-9-9-9-----7-9-7---|-7-7-7-7-7-7-7-7--9--------| 
A-|-5-5-5-5-5-5-5-5-7-7-7-7-7-9-------7-|-5-5-5-5-5-5-5-5--7------2-| 
E-|-------------------------------------|-------------------------0-| 
[ Tab from: http://www.guitartabs.cc/tabs/s/satanic_surfers/before_its_too_late_tab.html ]
Chorus: 
e-|----------------------------------------------------------------- 
B-|----------------------------------------------------------------- 
G-|----------------------------------------------------------------- 
D-|-----------------4-4-4-4-7-7-7-7-----------------4-4-4-4-7-7-7-7- 
A-|-4-4-4-4-7-7-7-7-2-2-2-2-5-5-5-5-4-4-4-4-7-7-7-7-2-2-2-2-5-5-5-5- 
E-|-2-2-2-2-5-5-5-5-----------------2-2-2-2-5-5-5-5----------------- 

e-|-------------------------------------------------| 
B-|-10-9---------9-10-9---------9-10-9---------9-10-| 
G-|------11-9-11--------11-9-11--------11-9-11------| 
D-|-------------------------------------------------| 
A-|-------------------------------------------------| 
E-|-------------------------------------------------| 

Solo: 
e-|-9----------------------------------9----17-16----17-16----17-16---- 
B-|---12-9h10-9--------------------------12-------17-------17-------17- 
G-|-------------11-9h11-9h11-9h11-9h11--------------------------------- 
D-|-------------------------------------------------------------------- 
A-|-------------------------------------------------------------------- 
E-|-------------------------------------------------------------------- 

e-|----------------------------------| 
B-|--------------------10-10-10-9----| 
G-|----7-7-7-12-11-9-9------------11-| 
D-|-11-------------------------------| 
A-|----------------------------------| 
E-|----------------------------------| 

-------------------------------------------------------------------------------
Comments