Sash - Equador Chords & Tabs

 

Equador Chords & Tabs

Sash Chords & Tabs

Version: 1 Type: Tab 0 ratings
1 star 2 stars 3 stars 4 stars 5 stars
comments

Equador Tab

   Equador by Sash:


 Very beautiful melody, My first tab ....  i did`nt find any tab for this song so here 
is! Have fun!

[ Tab from: http://www.guitartabs.cc/tabs/s/sash/equador_tab.html ]
E-6-----.    -9-8-9-8---6-----.-9-8-9-8---8--6--.--------|
B----6--.    ---------9----6--.---------9-------.--------|
G-------.    -----------------.-----------------.--------|
D-------.    -----------------.-----------------.--------|
A-------.    -----------------.-----------------.--------|
E-------.    -----------------.-----------------.--------|


E-9-8-9-8---9--6--.-9-8-9-8----6-----|
B---------9-------.----------9----6--|
G-----------------.------------------|
D-----------------.------------------|
A-----------------.------------------|
E-----------------.------------------|


 Repeat this through hole the song
any comments or even anything, well just contact me at kaled.amer@spray.se
Comments