Sarcofago - Ready To Fuck Chords & Tabs

 

Ready To Fuck Chords & Tabs

Sarcofago Chords & Tabs

Version: 1 Type: Tab 0 ratings
1 star 2 stars 3 stars 4 stars 5 stars
comments

Ready To Fuck Tab

Band = "Sarcófago"
Title = "Ready to Fuck"
>From the Album = "I.N.R.I"
Transcribed By = Sidney   or sidney@unisys.com.br 

____________________________________________________________________
____________________________________________________________________ 
             

Riff1(2X)
|------------------------------------------------------------------|
|------------------------------------------------------------------|
|------------------------------------------------------------------|
|------------------------------------------------------------------|
|------------------------------------------------------------------|
|-0.-3-5-3-0.-3.-0.-3-5-3-0.-5-6-0.-3-5-3-0.-3.-0.-3-5-3-0.-6-5----|
|
Fill1
|------|
|------|
|------|In the last time
|------|
|---2.-|
|---0.-|
|

Riff2(4X)
|------------------------------------------------------------------|
|------------------------------------------------------------------|
|------------------------------------------------------------------|
|------------------------------------------------------------------|
|-7.-8.-7.-10-8-7.-8.-7.-5-3---------------------------------------|
|-5.-6.-5.-8--6-5.-6.-5.-3-1---------------------------------------|
|
Riff1(2X) Without Fill1
Riff2(2X)
Riff1(2X)
[ Tab from: http://www.guitartabs.cc/tabs/s/sarcofago/ready_to_fuck_tab.html ]
Riff3(2X)
|------------------------------------------------------------------|
|------------------------------------------------------------------|
|------------------------------------------------------------------|
|----5-5-5-5----5-5-5-5----5-5-5-5---------------------------------|
|----3-3-3-3----3-3-3-3----3-3-3-3----7.7/8------------------------|
|-0.---------0.---------0.---------0.------------------------------|
|
|------------------------------------------------------------------|
|------------------------------------------------------------------|
|------------------------------------------------------------------|
|----5-5-5-5----5-5-5-5----5-5-5-5----7.---------------------------|
|----3-3-3-3----3-3-3-3----3-3-3-3------7/8------------------------|
|-0.---------0.---------0.---------0.------------------------------|
|
Fill2
|---------|
|---------|
|---------|In the last time
|-9-------|
|-7--2-2-2|
|-0--0-0-0|
|
Riff4(2 1/2 X)
|------------------------------------------------------------------|
|------------------------------------------------------------------|
|------------------------------------------------------------------|
|-2-2-2--------------------2-2-2-----------------------------------|
|-2-2-2-----2-3-2-3-2------2-2-2----2-3-2-3-5-3-2------------------|
|-0-0-0---------------3-2--0-0-0-----------------------------------|
|
Riff5(2X)
|------------------------------------------------------------------|
|------------------------------------------------------------------|
|------------------------------------------------------------------|
|--9.-10.-9.-12-9.-10.-9.-5----------------------------------------|
|--7.-8.--7.-10-7.-8.--7.-3----------------------------------------|
|------------------------------------------------------------------|
|
Riff6(2X)
|------------------------------------------------------------------|
|------------------------------------------------------------------|
|------------------------------------------------------------------|
|-4.-5.-4.-7-4.-5.-4.----------------------------------------------|
|-2.-3.-2.-5-2.-3.-2.-5--------------------------------------------|
|---------------------3--------------------------------------------|
|
Riff5(2X)
Riff6(2x)
Riff1(4X)
Riff2(2X)With 
|---|
|---|
|---|
|-5-|
|-5-|
|-3-|

For Questions, Comments, Corrections, or Newest Version;  
               please contact: ney666@hotmail.com
Comments