Sarcofago - F O M B M Chords & Tabs

 

F O M B M Chords & Tabs

Sarcofago Chords & Tabs

Version: 1 Type: Tab 0 ratings
1 star 2 stars 3 stars 4 stars 5 stars
comments

F O M B M Tab

Sarcofago
F.O.M.B.M.
(FUCK OFF THE MELODIC BLACK METAL!!!)
>From the great last Mcd:CRUST!!!
                   TABBED BY KAISER BLASTORKKK!!!
Normal tune...and pick as fast as possible every riff!!!
Thanks to D:A:E. for insipiration and satanic pleasure...forever!!!
[ Tab from: http://www.guitartabs.cc/tabs/s/sarcofago/f_o_m_b_m_tab.html ]
Drum intro...                                
Riff 1                                             |
-----------------------------------------------/   |
-----------------------------------------------/   |
-----------------------------------------------/   |
----7.......-----------------------------------/   |
----5.......-7.......6........-----------------/   |
-------------5.......4........-----------------/   |
                                                   |-----Ultra Fast part!!!
Riff 2                                             |     Pick as a demon and 
-----------------------------------------------/   |     destroy your right
-----------------------------------------------/   |     hand,in the name 
-----------------------------------------------/   |     of SATAN!!!
-----------------------------------------------/   |
----4........--2...4...5......2...4.......-----/   |
----2........--0...2...3......0...2.......-----/   |
                                                   |
                                                
Pick noises and begin...:                              Listen the Fucking timing!!!
                                                             BASTARDS!!!
Riff 3                                             
--------------------------------------------------/     |
--------------------------------------------------/     |
--------------------------------------------------/     |
--------------------------------------------------/     |
------------------------/12b--------------/13b----/     |
0-0-0-0-0-0-0-0-0-0-0-0------0-0-0-0-0-0-0--------/     |
P.M....................      .............              |
                                                        |
Riff 3...                                               |
---------------------------------------------------/    |-----Thrash/Death part!!!
---------------------------------------------------/    |     Pick as a whore!!!
---------------------------------------------------/    |
-------------------------------------------12/13!!!/    |
-----------------------/12b----------------10/11!!!/    |
0-0-0-0-0-0-0-0-0-0-0-0------0-0-0-0-0-0-0---------/    |
P.M....................      .............              |
                                                        |

KKK.
Comments