Sarah Mclachlan - I Love You Chords & Tabs

 

I Love You Chords & Tabs

Sarah Mclachlan Chords & Tabs

Version: 1 Type: Tab 0 ratings
1 star 2 stars 3 stars 4 stars 5 stars
comments

I Love You Tab

Sarah McLachlan - I Love You
Tabbed By: Nichola
EMail: pikseygirl318@yahoo.com


Verse 

I have a smile, stretched from ear to ear...

e -------------------3---2---------2------------
B ---------------1-------3---------3------------
G ---------------2-------2---------2------------
D ---2----2---2--2----------2---2---------------
A ---3----2---3------2------2---3---------------
E ---3---------------3--------------------------

Its just you and me on my island of hope....


e ----3--------------3---2---------2------------
B ---------------1-------3---------3------------
G ---------------2-------2---------2------------
D --------2---2--2----------2---2---------------
A ----2---2---3------2------2---3---------------
E ----3--------------3--------------------------

Bridge

Oh, and every time I'm close to you...

e --------2-----------2---------------------------
B ----1---3---1---1---3---------------------------
G --------2---2-------2---------------------------
D ----2-------2---2-------------------------------
A ----------------3-------------------------------
E ------------------------------------------------

Chorus

And I forgot, to tell you I love you.. 


e --3---2--------------------------------------------
B ------3-----------3--------------------------------
G ------2-----------2-------2------------------------
D ----------2---2---2---2---2------------------------
A --2-------2---3---3---3---3------------------------
E --3------------------------------------------------

And the night's too long and cold here without you.....

e --3---2--------------------------------------------
B ------3-----------3--------------------------------
G ------2-----------2-------2------------------------
D ----------2---2---2---2---2------------------------
A --2-------2---3---3---3---3------------------------
E --3------------------------------------------------

I grieve in my condition, for I cannot find the words to say I need you so...
[ Tab from: http://www.guitartabs.cc/tabs/s/sarah_mclachlan/i_love_you_tab.html ]
e ---2-------3----------------------------------------
B ---3---1--------------------------------------------
G ---2---2--------------------------------------------
D -------2--------------------------------------------
A -----------2----------------------------------------
E -----------3----------------------------------------

Guitar Interludee ----3--------------3---2---------2------------
B ---------------1-------3---------3------------
G ---------------2-------2---------2------------
D --------2---2--2----------2---2---------------
A ----2---2---3------2------2---3---------------
E ----3--------------3--------------------------


Bridge

Bridge

Oh, and every time I'm close to you...

e --------2-----------2---------------------------
B ----1---3---1---1---3---------------------------
G --------2---2-------2---------------------------
D ----2-------2---2-------------------------------
A ----------------3-------------------------------
E ------------------------------------------------


Chorus

And I forgot, to tell you I love you.. 


e --3---2--------------------------------------------
B ------3-----------3--------------------------------
G ------2-----------2-------2------------------------
D ----------2---2---2---2---2------------------------
A --2-------2---3---3---3---3------------------------
E --3------------------------------------------------

And the night's too long and cold here without you.....

e --3---2--------------------------------------------
B ------3-----------3--------------------------------
G ------2-----------2-------2------------------------
D ----------2---2---2---2---2------------------------
A --2-------2---3---3---3---3------------------------
E --3------------------------------------------------

I grieve in my condition, for I cannot find the words to say I need you so...

e ---2-------3----------------------------------------
B ---3---1--------------------------------------------
G ---2---2--------------------------------------------
D -------2--------------------------------------------
A -----------2----------------------------------------
E -----------3----------------------------------------

Outro

e ---3--------------------------------------------------
B --------------1---------------------------------------
G --------------2---------------------------------------
D -------2---2--2---2-----------------------------------
A ---2---2---3------2-----------------------------------
E ---3--------------------------------------------------

well thats it.. its a fairly easy song to play, enjoy!
Comments