Sarah Connor - Bounce Chords & Tabs

 

Bounce Chords & Tabs

Sarah Connor Chords & Tabs

Version: 1 Type: Tab 0 ratings
1 star 2 stars 3 stars 4 stars 5 stars
comments

Bounce Tab

   
Tabbed by Doyon alias Johnny

Drop-D tuning (low to high: D,a,D,g,b,e)
Palm mute : . 

This song is in three part: intro, Riff 1 & 2

  Intro

|-------------------------------------------------|
|-------------------------------------------------|
|-7-7-7-7-7-7-7-7-7-7-7-7-7-7-7-7-7-7-7-7-7-7-7-7-|
|-7-7-7-7-7-7-7-7-7-7-7-7-7-7-7-7-7-7-7-7-7-7-7-7-|
|-5-5-5-5-5-5-5-5-5-5-5-5-5-5-5-5-5-5-5-5-5-5-5-5-|
|-------------------------------------------------|
pm. . . . . . . . . . . . . . . . . . . . . . . .
[ Tab from: http://www.guitartabs.cc/tabs/s/sarah_connor/bounce_tab.html ]
 Riff 1
|--------------------------------------------------------|
|--------------------------------------------------------|
|--------------------------------------------------------|
|--------------------------------------------------------|
|-5--5-7-8-7-5--5--5-7-8-7-5--0--0-2-3-2-0--0--0-2-3-2-0-|
|-5--5-7-8-7-5--5--5-7-8-7-5--0--0-2-3-2-0--0--0-2-3-2-0-|
pm.  . . . . .  .  . . . . .  .  . . . . .  .  . . . . .  

 Riff 2
|----------------------------------------------------------------|
|----------------------------------------------------------------|
|----------------------------------------------------------------|
|----------------------------------------------------------------|
|-5--5-7-8-7-5--5--5-7-8-7-5--0--0-2-3-2-0--0-2-3-2-0--0-2-3-2-0-|
|-5--5-7-8-7-5--5--5-7-8-7-5--0--0-2-3-2-0--0-2-3-2-0--0-2-3-2-0-|
pm.  . . . . .  .  . . . . .  .  . . . . .  . . . . .  . . . . .

Intro 1 x 
After you play continuously : Riff 1 - Riff 2 - Riff 1 - Riff 2 ...,
etc, until the end !! Follow the beat of the song !

           Have fun
Comments