Saosin - Third Measurement In C Chords & Tabs

 

Third Measurement In C Chords & Tabs

Saosin Chords & Tabs

Version: 1 Type: Bass Tab

Third Measurement In C Bass Tab

   
 _______________________
|                       | SONG:      3RD MEASUREMENT IN C (bass)	
|       SAOSIN          | ALBUM:     TRANSLATING THE NAME EP
|_______________________| TABBED BY: ibnzplayer0 (label_Sk8er1@yahoo.com)
 ______________________
| . = PALM MUTE        |
| ~ = LET NOTE RING    |
| / = SLIDE UP         |
| V = NATURAL HARMONIC |
| + = TIED NOTE        |
| b = BEND NOTE        |
|______________________|
TUNING : C G C F 
Q = 106
__________________________________________________________________________

[INTRO]
|-----------------------|-----------------------|
|-----------------------|-----------------------|
|-----------------------|-----------------------|
|-4-4-4-4-4-4-4-4-4-4-4-|-0-0-0-0-0-0-0-0-0-0-0-|

|--------------|-------------------------|
|--------------|-------------------------|
|--------------|-------------------------|
|-2-2-2-2-2----|-0-0-0-0-0-0-2-2-2-2-2-2-|x2



[Verse]
|---------------------|---------------------|
|---------------------|---------------------|
|---------------------|---------------------|
|-4-4-4-4-4-4-4-4-4-4-|-2-2-2-2-2-2-2-2-2-2-|
                                            
|---------------------|---------------------|
|---------------------|---------------------|
|---------------------|---------------------|
|-0-0-0-0-0-0-0-0-0-0-|-2-2-2-2-2-2-2-2-2-2-|x3

|---------------------|----------------------|
|---------------------|----------------------|
|---------------------|----------------------|
|-4-4-4-4-4-4-4-4-4-4-|-/7-7-7-7-7-7-7-7-7-7-|
                                       
|---------------------|------------------------------|
|---------------------|------------------------------|
|---------------------|------------------------------|
|-0-0-0-0-0-0-0-0-0-0-|-0-0-0-0-0-0-2-2-2-2-2-2-2-2--|



[chorus]
|-----------------------|-----------------------|
|-----------------------|-----------------------|
|-----------------------|-----------------------|
|-4-4-4-4-4-4-4-4-4-4-4-|-0-0-0-0-0-0-0-0-0-0-0-|
[ Tab from: http://www.guitartabs.cc/tabs/s/saosin/third_measurement_in_c_btab.html ]
|--------------|-------------------------|
|--------------|-------------------------|
|--------------|-------------------------|
|-2-2-2-2-2----|-0-0-0-0-0-0-2-2-2-2-2-2-|



[Verse]
|---------------------|---------------------|
|---------------------|---------------------|
|---------------------|---------------------|
|-4-4-4-4-4-4-4-4-4-4-|-2-2-2-2-2-2-2-2-2-2-|
                                            
|---------------------|---------------------|
|---------------------|---------------------|
|---------------------|---------------------|
|-0-0-0-0-0-0-0-0-0-0-|-2-2-2-2-2-2-2-2-2-2-|

|---------------------|----------------------|
|---------------------|----------------------|
|---------------------|----------------------|
|-4-4-4-4-4-4-4-4-4-4-|-/7-7-7-7-7-7-7-7-7-7-|
                                       
|---------------------|------------------------------|
|---------------------|------------------------------|
|---------------------|------------------------------|
|-0-0-0-0-0-0-0-0-0-0-|-0-0-0-0-0-0-2-2-2-2-2-2-2-2--|



[chorus]
|-----------------------|-----------------------|
|-----------------------|-----------------------|
|-----------------------|-----------------------|
|-4-4-4-4-4-4-4-4-4-4-4-|-0-0-0-0-0-0-0-0-0-0-0-|

|--------------|-------------------------|
|--------------|-------------------------|
|--------------|-------------------------|
|-2-2-2-2-2----|-0-0-0-0-0-0-2-2-2-2-2-2-|


[BREAKDOWN]                                       
|----------|----------|----------|-------|
|----------|----------|----------|-------|
|----------|----------|----------|-0-----|
|-0--------|-2--------|-4--------|-------|x3


   Outro
|-----------------------|-----------------------|
|-----------------------|-----------------------|
|-----------------------|-----------------------|
|-0-0-0-0-0-0-0-0-0-0-0-|-2-2-2-2-2-2-2-2-2-2-2-|


                                                           
|-----------------------|---------------------------------|
|-----------------------|---------------------------------|
|-----------------------|---------------------------------|
|-4-4-4-4-4-4-4-4-4-4-4-|-7-7-7-7-7-7-7-7-7-7-7-7-7-7-7-7-|x3


|------------------------|
|------------------------|
|------------------------|
|-0-0-0-0-0-0-2-2-2-2-2--|

There it is...have fun