Saosin - Seven Years Chords & Tabs

 

Seven Years Chords & Tabs

Saosin Chords & Tabs

Version: 4 Type: Tab

Seven Years Tab

   
Saosin - Seven Years
Tabbed by: Carl (ka_caloy@yahoo.com)
* = harmonic/palm mute

GUITAR 1 Verse: 3x "Taking on seven years..."
D|-------------------------------------------------|
A|-------------------------------------------------|
F|-------------------------------------------------|
C|----12--12------12--12------12--12------12--12---|
G|--10--10--10--10--10--10--10--10--10--10--10--10-|
D|12----------12-----------8-----------8-----------|

Verse Cont'd: 1x "Getting off my chest..."
D|-------------------------------------------------|
A|-------------------------------------------------|
F|-------------------------------------------------|
C|----12--12------12--12------12--12------12--12---|
G|--10--10--10--10--10--10--10--10--10--10--10--10-|
D|12----------12-----------8----------10-----------|

Pre-chorus: 1x "I would find a way without you..."
D|--------------------------------------------------|
A|--------------------------------------------------|
F|1--11-121211-9-1---14-1616-14--5555555555555555---|
C|2---x--x-x-x-x-2----x--x-x--x--5555555555555555---|
G|2---9/10109/7-2---12/141412--3333333333333333-----|
D|0--------------0----------------------------------|

Pre-chorus Cont'd: 1x
D|------------------------------------------------------------|
A|------------------------------------------------------------|
F|---------7-------------7-------------------------7----------|
C|-----------------------------------------7-----7---10-9-----|
G|7-9-10-9---9--7-9-10-9---9--7-9/10--9-10----10----------10--|
D|------------------------------------------------------------|

Chorus/Outro: Play over and over "This mistake was gold"
D|-------18-------|
A|19-------19-18--|
F|----18----------|
C|--16------------|
G|----------------|
D|----------------|

Verse
Pre-chorus
Chorus
Outro
[ Tab from: http://www.guitartabs.cc/tabs/s/saosin/seven_years_tab_ver_4.html ]
GUITAR 2
Verse: 3x "Taking on seven years..."
D|-------------------------------------------------|
A|-------------------------------------------------|
F|-------------------------------------------------|
C|--------12----------12----------12----------12---|
G|--10--10--10--10--10--10--10--10--10--10--10--10-|
D|12--12------12--12-------8--12-------8--12-------|

Verse Cont'd: 1x "Getting off my chest..."
D|-------------------------------------------------|
A|-------------------------------------------------|
F|-------------------------------------------------|
C|--------12----------12----------12----------12---|
G|--10--10--10--10--10--10--10--10--10--10--10--10-|
D|12--12------12--12-------8--12------10--12-------|

Pre-chorus: 2x "I would find a way without you..."
D|--------------------------------------|------|
A|----*5--------------------------------|------|
F|1-----*5--11-121211--5555555555555555-|------|
C|2----------x--x-x-x--5555555555555555-|------|- Only play this second time
G|2----------9/10109--3333333333333333-|-------|
D|0-------------------------------------|12----|

Chorus: 1x "This mistake was gold"
D|-------------------------------------------------|
A|----------------------------------------P--------|
F|11111111111111117777777777777777--------A--------|
C|2222222222222222777777777777777799999999U10101010-
G|2222222222222222555555555555555599999999S10101010-
D|0000000000000000----------------77777777E88888888-

Chorus Cont'd: 1x
D|--------------------------------------------------------------------------------------|
A|--------------------------------------------------------------------------------------|
F|11111111111111117777777777777777------------------------------------------------------|
C|22222222222222227777777777777777-----12-----------12------------12-----------12-------|
G|22222222222222225555555555555555--10---10-10---10---10-10----10---10-10---10---10-10--|
D|0000000000000000----------------77--7----7---77--7----7----66--6----6---66--6----6----|
                                  **  *    *   **  *    *    **  *    *   **  *    *
Verse
Pre-Chorus
Chorus
Interlude: 1x
D|-------------|
A|-------------|
F|111-1--111-1-|
C|222-2--222-2-|
G|222-2--222-2-|
D|000-0--000-0-|
Outro/Part where they go crazy: 5x "Dont treat me Im to blame..."
D|----------------------------|
A|----------------------------|
F|111-1--111-1--555-5--777-7--|
C|222-2--222-2--555-5--777-7--|
G|222-2--222-2--333-3--555-5--|
D|000-0--000-0----------------|