Saosin - Seven Years Acoustic Chords & Tabs

 

Seven Years Acoustic Chords & Tabs

Saosin Chords & Tabs

Version: 3 Type: Tab 0 ratings
1 star 2 stars 3 stars 4 stars 5 stars
comments

Seven Years Acoustic Tab

SAOSIN-SEVEN YEARS(ACOUSTIC VERSION)

DROP D TUNING ...this is a very easy song ..me and my friends figured it out.
i know its right.hope you like it!


Verse-do this 3 times 
e|---------------------------------------------------------------------|
B|---------------------------------------------------------------------|
G|---------------------------------------------------------------------|
D|-----10-----------10-----------10-----------10-----------------------|
A|---8----8---8---8----8---8---8----8---8---8----8---8-----------------|
D|-0--------0---0--------0---8--------8---8--------8-------------------|

then after 3 times go to :
e|---------------------------------------------------------------------|
B|---------------------------------------------------------------------|
G|---------------------------------------------------------------------|
D|-----10-----------10-----------10------------10----------------------|
A|---8----8---8---8----8---8---8----8---8----8----8----8---------------|
D|-0--------0---0--------0---8--------8---10--------10-----------------|

e|---------------------------------------------------------------------|
B|---------------------------------------------------------------------|
G|---------------------------------------------------------------------|
D|-----10-----------10-----------10-----------10-----------------------|
A|---8----8---8---8----8---8---8----8---8---8----8---8-----------------|
D|-0--------0---0--------0---8--------8---8--------8-------------------|

the endidng on this part is really just strumming back and forth
e|---------------------------------------------------------------------|
B|---------------------------------------------------------------------|
G|---------------------------------------------------------------------|
D|-----10-----------10-----------10-----10-----10----10---10------10---|
A|---8----8---8---8----8---8---8----8------8-----8-----8----8---8------|
D|-0--------0---0--------0---8--------8------8-----8-----8----8--------|

verse 2-repeat twice
e|---------------------------------------------------------------------|
B|---------------------------------------------------------------------|
G|---------------------------------------------------------------------|
D|-----10-----------10------------10-------------10--------------------|
A|---8----8---8---8----8---8----8----8----8----8----8----8-------------|
D|-0--------0---0--------0---10--------10---10--------10---------------|

e|---------------------------------------------------------------------|
B|---------------------------------------------------------------------|
G|---------------------------------------------------------------------|
D|-----10-----------10-------------------------------------------------|
A|---8----8---8---8----8---8-------------------------------------------|
D|-7--------7---8--------8---------------------------------------------|

e|---------------------------------------------------------------------|
B|---------------------------------------------------------------------|
G|---------------------------------------------------------------------|
D|-----10-----------10-----------10-----------10-----------------------|(x2)
A|---8----8---8---8----8---8---8----8---8---8----8---8-----------------|
D|-0--------0---0--------0---8--------8---8--------8-------------------|

e|---------------------------------------------------------------------|
B|---------------------------------------------------------------------|
G|---------------------------------------------------------------------|
D|-----10-----------10------------10-------------10--------------------|
A|---8----8---8---8----8---8----8----8----8----8----8----8-------------|
D|-0--------0---0--------0---10--------10---10--------10---------------|

e|---------------------------------------------------------------------|
B|---------------------------------------------------------------------|
G|---------------------------------------------------------------------|
D|-----10-----------10-------------------------------------------------|
A|---8----8---8---8----8---8-------------------------------------------|
D|-7--------7---8--------8---------------------------------------------|
[ Tab from: http://www.guitartabs.cc/tabs/s/saosin/seven_years_acoustic_tab_ver_3.html ]
e|---------------------------------------------------------------------|
B|---------------------------------------------------------------------|
G|---------------------------------------------------------------------|
D|-----10-----------10-----------10-----------10-----------------------|
A|---8----8---8---8----8---8---8----8---8---8----8---8-----------------|
D|-0--------0---0--------0---8--------8---8--------8-------------------|

the endidng on this part is really just strumming back and forth
e|---------------------------------------------------------------------|
B|---------------------------------------------------------------------|
G|---------------------------------------------------------------------|
D|-----10-----------10-----------10-----10-----10----10---10------10---|
A|---8----8---8---8----8---8---8----8------8-----8-----8----8---8------|
D|-0--------0---0--------0---8--------8------8-----8-----8----8--------|


e|---------------------------------------------------------------------|
B|---------------------------------------------------------------------|
G|---------------------------------------------------------------------|
D|-----10-----------10------------10-------------10--------------------|
A|---8----8---8---8----8---8----8----8----8----8----8----8-------------|
D|-0--------0---0--------0---10--------10---10--------10---------------|
                                                                        (X2)
e|---------------------------------------------------------------------|
B|---------------------------------------------------------------------|
G|---------------------------------------------------------------------|
D|-----10-----------10-------------------------------------------------|
A|---8----8---8---8----8---8-------------------------------------------|
D|-7--------7---8--------8---------------------------------------------|

e|---------------------------------------------------------------------|
B|---------------------------------------------------------------------|
G|---------------------------------------------------------------------|
D|---10--------------10--------------10--------------------------------|
A|------8----(X6)-------8---(X1)--------8----(X1)----------------------|
D|-0------0--------8------8-------10------10---------------------------|

e|---------------------------------------------------------------------|
B|---------------------------------------------------------------------|
G|---------------------------------------------------------------------|
D|---10--------------10--------------10--------------------------------|
A|------8----(X2)------8---(X1)--------8----(X1)-----------------------|
D|-0------0--------8------8-------10------10---------------------------|

e|---------------------------------------------------------------------|
B|---------------------------------------------------------------------|
G|---------------------------------------------------------------------|
D|---10--------------10--------------10--------------------------------|
A|------8----(X2)------8---(X1)--------8----(X1)-----------------------|
D|-0------0--------8------8-------10------10---------------------------|

e|---------------------------------------------------------------------|
B|---------------------------------------------------------------------|
G|---------------------------------------------------------------------|
D|---10--------------10--------------10--------10----------------------|
A|------8----(X2)------8---(X1)--------8-----8----8--------------------|
D|-0------0--------8------8-------10------10--------0------------------|


LYRICS:

Seven Years (Acoustic) Lyrics
Artist(Band):Saosin Review The Song (0)
 Print the Lyrics
 


Seven Years (Acoustic) Lyrics


Taking on seven years 
The holy ghost had left alone 
Test my arms, kick like crazy 
And I've been trying way too long 
Only push the way off to fight you 
And I'm sorry, I'm sorry, I'm not sure 
Getting off my chest 
The story ends 
I would find a way without you 
I would find a way without you 
That mistake was gold
I know that without you 
It's something that I could never do 
That was right 
Staple the eyes and 
Seven dates for me to sell machines 
And tear on 
Seven years you assured me 
That I'd be fine if I complied 
Only push the way off to fight you 
And I'm sorry, I'm sorry, I'm not sure 
Getting off my chest 
The story ends 
Without you 
I would find a way without you 
That mistake was gold
I know that without you 
It's something that I could never ever ever ever... 
That was right 
Staple the eyes and 
Seven dates for me to sell machines 
And tear on 

Don't treat me I'm to blame 
Dont treat me like I ever accused you 
Don't treat me I'm to blame 
Dont treat me like I ever accused you 
Don't treat me I'm to blame 
Dont treat me like I ever accused you 
Don't treat me I'm to blame 
Dont treat me like I ever accused you
Comments