Saosin - Plays Pretty For Baby Chords & Tabs

 

Plays Pretty For Baby Chords & Tabs

Saosin Chords & Tabs

Version: 2 Type: Tab

Plays Pretty For Baby Tab

Verse:

|-----------------------------------------------------------------|
|-----------------------------------------------------------------|
|--13-13-15-15-15-13-13-13-x--------------------------------------|
|--13-13-13-13-13-13-13-13-x--13-13-15-15-15-15-15----------------|
|--11-11-11-11-11-11-11-11-x--13-13-13-13-13-13-13----------------|
|-----------------------------11-11-11-11-11-11-11----------------|

|-----------------------------------------------------------------|
|-----------------------------------------------------------------|
|-----------------------------------------------------------------|
|-11-11-11-11-11-11-11-13-13-15-15-15-15-15-----------------------|
|-11-11-11-11-11-11-11-13-13-13-13-13-13-13-----------------------|
|-9--9--9--9--9--9- 9--11-11-11-11-11-11-11-----------------------|

Chours:
[ Tab from: http://www.guitartabs.cc/tabs/s/saosin/plays_pretty_for_baby_tab_ver_2.html ]
|-----------------------------------------------------------------|
|-----------------------------------------------------------------|
|-13--------------------------------------------------------------|
|-13x5-13---11---13-----------------------------------------------|
|-11---13x5-11x5-13x5---------------------------------------------|
|------11---9----11-----------------------------------------------|

Solo:

|-----------------------------------------------------------------|
|-----------------------------------------------------------------|
|-----------------13------13--------------------------------------|
|-------13~----11---11-10---10------------------------------------| x2
|-11~-------------------------------------------------------------|
|-----------------------------------------------------------------|




_rock-lee-rocks@hotmail.com
Chulindrex Tabs_