Saosin - Plays Pretty For Baby Chords & Tabs

 

Plays Pretty For Baby Chords & Tabs

Saosin Chords & Tabs

Version: 1 Type: Tab 0 ratings
1 star 2 stars 3 stars 4 stars 5 stars
comments

Plays Pretty For Baby Tab

intro/verse 6 times
|-----------------------------------------------------------------|
|-----------------------------------------------------------------|
|---8-8-8-8-8-10-8xx----------------------------------------------|
|---6-6-6-6-6-6--6xx8-8-8-8-8-8-8xx---------------6-6-6-6-6-6-6xx-|
|-------------------6-6-6-6-6-6-6xx8-8-8-8-8-8-8xx4-4-4-4-4-4-4xx-|
|----------------------------------6-6-6-6-6-6-6xx----------------|

repeat that a bunch of times.
[ Tab from: http://www.guitartabs.cc/tabs/s/saosin/plays_pretty_for_baby_tab.html ]
CHORUS
Let it ring or keep strumming
|-------------------------------------------------------------------------|
|-------------------------------------------------------------------------|
|---8---------------------------------------------------------------------|
|---6--------------8------------------------------6-----------------------|
|------------------6---------------8--------------4-----------------------|
|----------------------------------6--------------------------------------|
Comments