Saosin - Penelope Acoustic Chords & Tabs

 

Penelope Acoustic Chords & Tabs

Saosin Chords & Tabs

Version: 1 Type: Tab

Penelope Acoustic Tab

Tabbed by: Chad Watford
Email:  cwatford@gmail.com
Artist: Saosin (pernounced Say-Ocean)
Song: Penelope (Acoustic)

Standard Tunning with Capo on 3rd Fret (tabbed as if capo were open)
Intro
e---------------------|----------------------------------------|
B-------------0-------|------------0---------------------------|
G---------2-----2---2-|--------2-----2---2----2-------2--------|
D-------0---0-----0---|------0---0-----0----------5------------|
A---0h2---------------|--0h2----------------2---2---2----------|
E---------------------|----------------------------------------|
First Verse (without vocal harmonies)
e-------------------------------------------|
B-------------0-----0-----0----0------------|
G---------2-----2-----2-----2----2----------|
D-------0---0-----0-----0-----0----0--------|
A---0h2-------------------------------------|
E-------------------------------------------|
[ Tab from: http://www.guitartabs.cc/tabs/s/saosin/penelope_acoustic_tab.html ]
To see you struggle...
Guitar 1
e-------------------------------------|
B---0-----0-----0-----0-----0---------|
G-----2-----2-----2-----2-----2-------|
D-------------------------------------|
A-2-----0-----------------------------|
E-------------3-----3------3----------|
Guitar 2
e-----------------------------------------------|
B-----------------------------------------------|
G--5---5---5---5---5---7---7---7---7---7--------|
D----7---7---7---7---7---6---6---6---6---6------|
A------7---7---7---7---5---7---7---7---7---7----|
E-----------------------------------------------|

Rest of the song is:
Guitar 1
e-------------------------------------|
B---0-----0-----0-----0-----0---------|
G-----2-----2-----2-----2-----2-------|
D-------------------------------------|
A-2-----0-----------------------------|
E-------------3-----3------3----------|
Guitar 2
e-------------------------------------------|
B-------------0-----0-----0----0------------|
G---------2-----2-----2-----2----2----------|
D-------0---0-----0-----0-----0----0--------|
A---0h2-------------------------------------|
E-------------------------------------------|

Thanks! If you have any questions you can reach me at cwatford@gmail.com