Saosin - I Can Tell Chords & Tabs

 

I Can Tell Chords & Tabs

Saosin Chords & Tabs

Version: 4 Type: Tab

I Can Tell Tab

   
By:Phantasm_999 (yahoo msgr)for questions.
Song:I Can Tell
Band:Saosin


This is just the part where the lyrics is:
"If only i have the strength..."
please give me a buzz on yahoo messenger if my piece helped.i dont know if this is
really the right one but it sounds almost the same though.racoon!!!i mean rock on!

D A D G B E
"If only i have the strength..."
e|-------3-----------3-------------| 
B|---------------------------------| 
G|-0-4-5---5-4-0-4-4---5-4-0-4-5-4-| 
D|---------------------------------| 
A|---------------------------------| 
D|---------------------------------|

then

e|-------3-------------------------| 
B|---------------------------------| 
G|-0-4-5---5-4-0-4---5-4-0-0-4-5-4-| 
D|---------------------------------| 
A|-----------------3---------------| 
D|---------------------------------|

then
[ Tab from: http://www.guitartabs.cc/tabs/s/saosin/i_can_tell_tab_ver_4.html ]
e|-------3-----------3-------------| 
B|---------------------------------| 
G|-0-4-5---5-4-0-4-4---5-4-0-4-5-4-| 
D|---------------------------------| 
A|---------------------------------| 
D|---------------------------------|
then
e|-------3-----------3-------------| 
B|---------------------------------| 
G|-0-4-5---5-4-0-4-4---5-4-0-4-5-4-| 
D|---------------------------------| 
A|---------------------------------| 
D|---------------------------------|

hint:
Lead on the intro
accuracy 50%
e|-------------------------3---3---------------------------3---3------| 
B|-5---5---5---5---4---4-----------5---5---5---5---4---4--------------| 
G|---5---5---5---5---5---5---5---5---5---5---5---5---5---5---5---5----| 
D|--------------------------------------------------------------------| 
A|--------------------------------------------------------------------| 
D|--------------------------------------------------------------------|


the rest is up to you.harhar!