Saosin - I Can Tell Chords & Tabs

 

I Can Tell Chords & Tabs

Saosin Chords & Tabs

Version: 2 Type: Tab 0 ratings
1 star 2 stars 3 stars 4 stars 5 stars
comments

I Can Tell Tab

   
By: Alvin =D
Artist: Saosin
Song: I Can Tell (New Accident) Rythem Guitar

Tuning: D A D G B E (Drop D)

.= Palm Mute
~=Let Ring

Intro:
e|-----------------------------------------------|
B|-----------------------------------------------| 
G|------------------------------------9/7777/555-| 
D|-7--------10--------3--------5------x/xxxx/xxx-| 
A|-7-(x16)--10-(x16)--3-(x16)--5-(x8)-7/5555/333-| 
D|-7--------10--------3--------5-----------------| 

e|----------------------------------------------------| 
B|----------------------------------------------------| 
G|----------------------------------------------------| 
D|-7--------10--------3--------5--------------5-------|
A|-7-(x16)--10-(x16)--3-(x16)--5-(x8)-3-5-2-3---3-2-3-| 
D|-7--------10--------3--------5----------------------| 
                                      . . . . . . . .
Verse:
e|-------------------------------------------| 
B|---------0---------------------------------| 
G|-5-(x16)-4-(x16)-5-(x8)-/7777/5555/4-(x16)-| x2
D|-------------------------------------------| 
A|-------------------------------------------| 
D|-------------------------------------------| 

e|---------------------------------| 
B|-------3---------------------3---| 
G|-0-4-5---5-4-0-4-0-4-5-0-4-5---5-| x4
D|---------------------------------| 
A|---------------------------------| 
D|---------------------------------| 

Chorus:
e|-----------------------------------------------|
B|-----------------------------------------------| 
G|------------------------------------9/7777/555-| 
D|-7--------10--------3--------5------x/xxxx/xxx-| 
A|-7-(x16)--10-(x16)--3-(x16)--5-(x8)-7/5555/333-| 
D|-7--------10--------3--------5-----------------| 

e|----------------------------------------------------| 
B|----------------------------------------------------| 
G|----------------------------------------------------| 
D|-7--------10--------3--------5--------------5-------|
A|-7-(x16)--10-(x16)--3-(x16)--5-(x8)-3-5-2-3---3-2-3-| 
D|-7--------10--------3--------5----------------------| 
                                      . . . . . . . .

Verse 2:
e|-------------------------------------------| 
B|---------0---------------------------------| 
G|-5-(x16)-4-(x16)-5-(x8)-/7777/5555/4-(x16)-| x2
D|-------------------------------------------| 
A|-------------------------------------------| 
D|-------------------------------------------| 
[ Tab from: http://www.guitartabs.cc/tabs/s/saosin/i_can_tell_tab_ver_2.html ]
e|---------------------------------| 
B|-------3---------------------3---| 
G|-0-4-5---5-4-0-4-0-4-5-0-4-5---5-| x4
D|---------------------------------| 
A|---------------------------------| 
D|---------------------------------| 

Chorus:
e|-----------------------------------------------|
B|-----------------------------------------------| 
G|------------------------------------9/7777/555-| 
D|-7--------10--------3--------5------x/xxxx/xxx-| 
A|-7-(x16)--10-(x16)--3-(x16)--5-(x8)-7/5555/333-| 
D|-7--------10--------3--------5-----------------| 

e|----------------------------------------------------| 
B|----------------------------------------------------| 
G|----------------------------------------------------| 
D|-7--------10--------3--------5--------------5-------|
A|-7-(x16)--10-(x16)--3-(x16)--5-(x8)-3-5-2-3---3-2-3-| 
D|-7--------10--------3--------5----------------------| 
                                      . . . . . . . .
Interlude:
e|-------------------------------------------| 
B|---------0---------------------------------| 
G|-5-(x16)-4-(x16)-5-(x8)-/7777/5555/4-(x16)-| x2
D|-------------------------------------------| 
A|-------------------------------------------| 
D|-------------------------------------------| 

e|---------------------------------| 
B|-------3---------------------3---| 
G|-0-4-5---5-4-0-4-0-4-5-0-4-5---5-| x4
D|---------------------------------| 
A|---------------------------------| 
D|---------------------------------| 

Chorus:
e|-----------------------------------------------|
B|-----------------------------------------------| 
G|------------------------------------9/7777/555-| 
D|-7--------10--------3--------5------x/xxxx/xxx-| 
A|-7-(x16)--10-(x16)--3-(x16)--5-(x8)-7/5555/333-| 
D|-7--------10--------3--------5-----------------| 

e|----------------------------------------------------| 
B|----------------------------------------------------| 
G|----------------------------------------------------| 
D|-7--------10--------3--------5--------------5-------|
A|-7-(x16)--10-(x16)--3-(x16)--5-(x8)-3-5-2-3---3-2-3-| 
D|-7--------10--------3--------5----------------------| 
                                      . . . . . . . .
Outro:                           
e|--------------------------|                 e|----|
B|--------------------------|                 B|----|
G|-5-------8-------10-------|  x2  End On...  G|-5~-|
D|-5-(x32)-8-(x16)-10-(x16)-|                 D|-5~-|
A|-3-------6--------8-------|                 A|-3~-|
D|--------------------------|                 D|----|
Comments