Sanz Alejandro - Amiga Mia Chords & Tabs

 

Amiga Mia Chords & Tabs

Sanz Alejandro Chords & Tabs

Version: 1 Type: Chords 0 ratings
1 star 2 stars 3 stars 4 stars 5 stars
comments

Amiga Mia Chords

INTRO
[ Tab from: http://www.guitartabs.cc/tabs/s/sanz_alejandro/amiga_mia_crd.html ]
  Lam9                          Fa5-
------------------------------|----------------------------|
--0-----0------0------0-------|-0------0------0-------0h1--|
------2------2------2------2--|------2------2-------2------|
----2------2------2------2----|----3------3-------3--------|
--0---------------------------|----------------------------|
------------------------------|-1--------------------------|
  Sol9                        DoM7        Mi4      Mi
----------------------------|-------------------------------|
--0-----0------0------0-----|-0-------0---------------------|
------2------2------2---5---|-----0-2------2-----2--1-----1-|
----5------5------5---------|---2--------------2--------2---|
----------------------------|-3--------------2--------2-----|
--3-------------------------|--------------0--------0-------|

Lam9                             
Amiga mia, lo se. Solo vives por
Fa5-
el, que lo sabe tambien. Pero el no te
Sol
ve como yo suplicarle a mi boca que
DoM7
diga que me ha confesado entre copas
Fa5-
que es con tu piel con quien sue~a de noche
Sol
y que enloquece con cada boton que
Lam9
te desabrochas pensando en sus manos.
Fa5-
El no te ha  visto temblar esperando
Sol
una palabra, algun gesto, un abrazo.
DoM7
El no te ve como yo suspirando,
Mi
con los ojitos abiertos de par en 
Fa5-
par, escucharme nombrarle. Ay amiga 
Sol
mia lo se y el tambien.
Comments