Santos Paolo - Til They Take My Heart Away Chords & Tabs

 

Til They Take My Heart Away Chords & Tabs

Santos Paolo Chords & Tabs

Version: 1 Type: Tab 0 ratings
1 star 2 stars 3 stars 4 stars 5 stars
comments

Til They Take My Heart Away Tab

   
********************************************************************
TABBED by:
Arvin Bajacan(vin)

questions or comments
Email: vyn1026@yahoo.com
********************************************************************
12/22/2003


ARTIST: Paolo Santos with Kyla
TITLE :	'til they take my heart away(acoustic)
TUNING: Standard tuning

This tab is 99% accurate!!!!!

legend: h=hammer; p=pull off; s=slide; ^=tap


INTRO:
E-------------0-------------------------0-------------------0--------------0-----|
B-------4--------4--------4-------4------------4------------------4------4----4--|
G-----4----4---------4-4--------4----4-----4-----4--0-----4----4-----4-----------|
D--------------------------------------------------------------------------------|
A------------------------------------------------------4-------------------------|
E--0-------------------------0---------------------------------------------------|

E--------------------0-------------------0------------------------4--------------|
B----------2--0------0h2--2-------4---------4-------4-------4--4-----4--4--------|
G-----2-2--------2--------------4----4---------4-4--------4-------------4---0----|
D--0-----------------------------------------------------------------------------|
A--------------------------------------------------------------------------------|
E----------------------------0-------------------------0-------------------------|

E-------------2-------------------------0----|
B-------5------------5------------2--0-------|
G-----4----4-----4-----0--------2------------|
D----------------------------0---------------|
A--4----------------------4------------------|
E--------------------------------------------|

PART 1.
verse(a)
	    I look in to your eyes...........                
E-------------0-------------------------0-------------------------2-------------|
B-------4-------------------------4--------------4----------5------------5------|
G-----4----4--------------------4----4--------------0-----4----4-----4-----0----|
D-------------------------------------------------------------------------------|
A------------------------------------------------------4----------------------4-|
E--0-------------------------0--------------------------------------------------|

E-------------------0---|
B----------2-----0--2---|
G------2----------------|
D--0--------------------|
A-----------------------|
E-----------------------|

(b)
	  There's trouble on your mind..........	
E-------------0-------------------------0---------------------------------------|
B-------4--------------4----------4------------4------------------4-------------|
G-----4----4--------------4-----4----4-----4-----4--0-------4------------4------|
D---------------------------------------------------------6----6-----6-----6----|
A------------------------------------------------------4----------------------4-|
E--0-------------------------0--------------------------------------------------|

E---------------0-------|
B----------0----------0-|
G----------6-------6----|
D------7----------------|
A-s5--------------------|
E-----------------------|

Part2 
Refrain:

   hey now..............
       a              b	                  E                    C#m7
E--------------------------------------------------------0---------------------------|
B----------0--0--------2---2---2----2-------------0--------0----------5--4--------4h5|
G----------2--2--------4---4---4----4----------1-----1--------1-------4-----4--4-----|
D------2---------2--------------------------2-----------------------6----------------|
A--0----------------0--2-------2---------------------------------4-------------------|
E---------------------------------------0--------------------------------------------|
     
		 'til they take my heart away	                      
     F#m                     b
E-------------2------------------------|
B----------2-----2----------2-------2--|
G-------2-----------2----2--4-------4--|
D-----4---------------4---------4------|
A---------------------------2----------|
E--2-----------------------------------|

Part3
Verse(a)
	Remember when you called..........
E-------------0-------------------------0----------------------------------|
B-------4--------------4----------4------------4------------------4--------|
G-----4----4--------------4-----4----4-----4-----4----------4---------4----|
D---------------------------------------------------------6----6-----------|
A---------------------------------------------------0--4-----------------4-|
E--0-------------------------0---------------------------------------------|

E-------------0----------|
B----------0--------0----|
G-------6--------6-------|
D-----7----------------7-|
A-s5---------------------|
E------------------------|

(b)  
	You thought we've lost it all
E----------------------------------0------------------------------------|
B----------0-------0------------0-----0--0---------------4--------------|
G----------1-------1---------1--------1--1---------------4--------4-----|
D------1--------1----------2-------------------------6--------6---------|
A------------------------------------------2--0--4-------------------4--|
E--0--------------------0-----------------------------------------------| 
	  
E--------------0--------|
B------0--0----------0--|
G------6--6-------6-----|
D------7----------------|
A-s5--------------------|
E-----------------------|

Part4

Refrain2:

	But even if i'd lost you......
       a              b	                  E                    C#m7
E----------------0-----------------------------------------------------------------|
B-------2--2----------2---2---2-------2----0---0---0----0--------5--4--------4-h5--|
G-------2--2----------2---2---2-------2----1---1---1----1--------4-----4--4--4-----|
D-------2-----2------------------------------------------------6-------------------|
A--0------------------2---2---2----2-------2-------2--2-----4----------------------|
E----------------------------------------------------------------------------------|
                   ^
      
	   'til they take my heart away...........believe...   im here...  to stay                      
     AM7                     b	    (strum)AM7	    b        G#m7        C#m7
E---------------------------------------------------2----------4----------4---------4-|
B----------2----2-------2---2--4--------2-----------2----------4----------5---5--4--4-|
G----------1----1----2--2---2--4--------1-----------4----------4----------4---------4-|
D------2-------------2------------------2-----------4----------6----------6---------6-|
A--0--------------------2---2--2--------------------2----------4----------4---------4-|
E--------------------2----------------------------------------------------------------|
	
[ Tab from: http://www.guitartabs.cc/tabs/s/santos_paolo/til_they_take_my_heart_away_tab.html ]
	take my heart away....   
  F#m7	     b	
E--2---------2---|
B--2---------2---|
G--2---------4---|
D--2---------4---|
A--4---------2---|
E--2-------------|


Part5 	
	
E-------------0-------------------------0--------------------------------------|
B-------4--------4----------------4------------4------------5--4----------4----|
G-----4----4---------4-4--4-----4----4-----4-----4--0-------4-----4--4--4------|
D---------------------------------------------------------6--------------------|
A------------------------------------------------------4---------------------4-|
E--0-------------------------0-------------------------------------------------|

	
E-------------0--|
B----------0-----|
G-------6--------|
D-----7----------|
A-s5-------------|
E----------------|

Part6
Verse(a)

	Now we're stronger than before...
E-------------0--------------------------0------------------------------|
B-------4-----------4--------------4----------4-------------4-----------|
G-----4----4---------------------4----4------------------4--------------|
D------------------------------------------------------6----------------|
A------------------------------------------------2--4--------------4----|
E--0--------------------------0-----------------------------------------|

E------------------0--|
B---------------0-----|
G----------6----6-----|
D------7--------------|
A-s5------------------|
E---------------------|

(b)

       I've never felt mo sure...
E-------------0--------------------------0-----------------------------|
B-------4-----------4--------------4----------4-------------4----4-----|
G-----4----4---------------------4----4---------------------4----4-----|
D-------------------------------------------------------6--------------|
A------------------------------------------------2--4---------------4--|
E--0--------------------------0----------------------------------------|

E---------------0--------|
B----------0-------------|
G----------6-------------|
D------7-----------------|
A-s5---------------5--5--|
E------------------------|

Part7
refrain3

   hey now..............
       a              b	                  E                    C#m7
E--------------------------------------------------------0------------------------------|
B----------0--0--------2---2---2----2-------------0--------0----------5--4-----------4--|
G----------2--2--------4---4---4----4----------1-----1--------1-------4-----4--4-----4--|
D------2---------2--------------------------2-----------------------6-------------------|
A--0----------------0--2-------2---------------------------------4----------------------|
E---------------------------------------0-----------------------------------------4-----|

	   'til they take my heart away...........believe...   im here...  to stay                      
     AM7                     b	    (strum)AM7	    b        G#m7        C#m7
E---------------------------------------------------2----------4----------4---------4-|
B----------2----2-------2---2--4--------2-----------2----------4----------5---5--4--4-|
G----------1----1----2--2---2--4--------1-----------4----------4----------4---------4-|
D------2-------------2------------------2-----------4----------6----------6---------6-|
A--0--------------------2---2--2--------------------2----------4----------4---------4-|
E--------------------2----------------------------------------------------------------|
	
	take my heart away....   
  F#m7	     b	
E--2---------2---|
B--2---------2---|
G--2---------4---|
D--2---------4---|
A--4---------2---|
E--2-------------|

Part8
Bridge:
   (Strum)DM7     C#m7                  F#m7     b      B6
E--5---------------4-------------4-------2-------2-------4----|
B--7---------------5-----p7-5----4-------2-------2-------4----|
G--6---------------4----------4--4-------2-------4-------4----|
D--7---------------6-------------6-------2-------4-------4----|
A--5---------------4-------------4-------4-------2-------4----|
E----------------------------------------2--------------------|
	   
  BM7 - B6 - BM7 - D#m7	              BM7 - B6
E--------------------6-----------------------------------------|
B--------------------7---7--6----------------------------------|
G--------------------6---------6--6----------------------------|
D--------------------8-----------------------------------------|
A--------------------6-----------------------------------------|
E-----------------------------------------------6----s9----s2--|

Part9
Chorus:	
   BM7     B6       Bb7     D#m7 
Believe...in me, I'm here to stay
E---------------------------6----------------|
B---------------------------7---7--6---------|
G---------------------------6---------6--6---|
D---------------------------8----------------|
A---------------------------6----------------|
E--------------------------------------------|
	
	BM7                       B6		    BM7 - B6 - Bbm7 - D#m7
    Cause i will love you, til they take my heart away
	BM7   			B6		    F# - BM7 - B6.....F#
    Cause i will love you, til they take my heart away
		
(last part)
E---------------2-------------------------2--------------------------2-------------|
B------------------2-------2------------------2-------------------4-----4----------|
G------------3--------3----------------3---------3-------------3-----------3-------|
D--------4--------------4----------4----------------4--------4---------------4-----|
A------4-------------------------4---------------------4--2---------------------2--|
E---2-------------------------2----------------------------------------------------|

E---4----------4---2---|
B---4-------4------3---|
G---4----4---------4---|
D------4-----------4---|
A---4--------------2---|
E----------------------|

Lyrics:

Part1 (a)I look into your eyes, so far away 
      (b)There's trouble on your mind, you're losing faith 

Part2	Hey now, let me hold you, it'll be OK 
	Cause I will love you till they take my heart away 

Part3 (a)Remember when you called and said goodbye 
      (b)You thought we'd lost it all and so did I 

Part4	But even if I'd lost you, I would feel the same 
	I will love you till they take my heart away 
	Believe I'm here to stay 
	I will love you till they take my heart away 
Part5

Part6 (a)Now we're stronger than before, we've made it through 
      (b)I've never felt more sure because of you 

Part7	Hey now, are you listening, can you hear me say? 
	I will love you till they take my heart away 

Part8  (instr. bridge) 

Part9	Believe in me, I'm here to stay 
	I will love you till they take my heart away (last part)

*****************************
keepin it gangsta!! wattup!!!
*****************************


Comments