Santos Paolo - For You Chords & Tabs

 

For You Chords & Tabs

Santos Paolo Chords & Tabs

Version: 1 Type: Tab 0 ratings
1 star 2 stars 3 stars 4 stars 5 stars
comments

For You Tab

FOR YOU
Paolo Santos

johnsantos_17@yahoo.com

Standard tuning: (EADGBE)

Intro:

E---------------|-----------|---------|--0---
B-5---4-5-----4-|---------5-|---------|--0--(strumming)
G-----4-4-4--4--|-4---4h6---|---2--4--|--1----
D---6-----6-6---|---4-------|---2--4--|--2----
A-4-------------|-0---------|---4--2--|--2---
E---------------|-----------|-2-------|--0---

Verse:

E-2--0--0----0-0--2--0--0---------
B-2--0--0----0-0--2--0--0---------
G-2--4--1----2-2--2--4--1---------
D-2--4--2----2-2--2--4--2---------
A-4--2--2----0----4--2--2--------
E-2-----0------4--2-----0------
[ Tab from: http://www.guitartabs.cc/tabs/s/santos_paolo/for_you_tab.html ]
E--4--0--4-4---0-0--2--0-0---------
B--5--2--4-4---0-0--2--0-5---------
G--4--2--4-4---2-2--2--4-4---------
D--6--2--6-4---2-2--2--4-4---------
A--4--0--6-6---0----4--2-2-------
E--------4-4-----4--2---------

Adlib:

E-0---
B-0---
G-1---
D-2---continuous strumming
A-2---
E-0---

Bridge:

E-0--4-4---4--2--0--------------
B-2--4-4---5--3--0--------------
G-2--4-4---4--2--1--------------
D-2--6-4---6--4--2--------------
A-0--6-6---4--2--2--------------
E----4-4---------0-----------

E-0--4-4---4--2--0--------------
B-2--4-4---5--2--0--------------
G-2--4-4---4--2--4--------------
D-2--6-4---6--2--4--------------
A-0--6-6---4--4--2--------------
E----4-4------2--------------

=====()w&_17=====
Comments