Santos Paolo - Cool With You Acoustic Chords & Tabs

 

Cool With You Acoustic Chords & Tabs

Santos Paolo Chords & Tabs

Version: 1 Type: Tab 1 rating
1 star 2 stars 3 stars 4 stars 5 stars
comments

Cool With You Acoustic Tab

   
********************************************************************
TABBED by:
Arvin Bajacan(vin)

questions or comments or friendster 
Email: vyn1026@yahoo.com
********************************************************************
1/22/2004


ARTIST: Paolo Santos
TITLE :	Cool with you(acoustic)
TUNING: Standard tuning


legend: h=hammer; p=pull off; s=slide; ^=tap


INTRO:                        
E-------------------------------------------------|
B--4----7----9------8------4----------------------|
G--4----8----9------9------4------------------4---|
D-----------------------------------------4-1-----|
A--2----6----7------7------2-------s4---2---------|
E-------------------------------------------------|

Part1
Verse1:  

Late last night i was goin through some old things......
   B   Ebm   E      B   Ebm   E
E------------------------------------------------------------------|
B-------8----9------4----8----9------4----8----9------9----8-------|
G-------7----9------4----7----9------4----7----9------6----6----4--|
D---------------------------------------------------------------4--|
A--2----6----7------2----6----7------2----6----7------6----6-------|
E---------------------------------------------------------------4--|

E---------------------|
B--5----8----9--------|
G--6----7----9-----4--|  
D------------------4--|
A--4----6----7--------|
E------------------2--|

Part2
Chorus:
[ Tab from: http://www.guitartabs.cc/tabs/s/santos_paolo/cool_with_you_acoustic_tab.html ]
Its a sunny day..whether ur not around...
   B   Ebm   E   F#sus   B   Ebm   E   F#sus   B   Ebm   E     Em      F#sus
E------------------------------------------0---------------------------------------------|
B--4----8----9-----------4----8----9-----------4----8----9------8------4-----------------|
G--4----7----9----4------4----7----9----4------4----7----9------9------4---------------4-|
D-----------------4---------------------4------------------------------------------4-1---|
A--2----6-56-7-----------2----6----7-----------2----6----7------7------2----s4---2-------|
E-----------------2---------------------2------------------------------------------------|


Part3
Verse2:

sometimes i sit by the fire reminisce
E--------------------|   -------------------------------|
B--4----8----9-------|	 -4----8----9------9----8-------|
G--4----7----9----4--|2X -4----7----9------6----6----4--|
D-----------------4--|	 ----------------------------4--|
A--2----6----7-------|   -2----6----7------6----6-------|
E-----------------2--|   ----------------------------4--|

E---------------------|
B--5----8----9--------|
G--6----7----9-----4--|  
D------------------4--|(Chorus)chords strumming! 
A--4----6----7--------|
E------------------2--|

Refrain:
G#m7            G#7  
I fall asleep at night 
G#m7
And often see you here 
C#m7
In my dreams 
Eb7
Holding me
G#m7            G#7 		G#m7 
But then I wake up and I realize that you're
C#m7 
Not here with me
F#sus 
It hurts so much 
I gotta have you back baby(chorus until fade)

LYRICS:
Late last night 
I was goin through some old things 
When i Saw a picture of you and my best friend 
It reminded me of day when you were mine 
You had a way that always let me hear with a smile 
I want those sweet days back agian 
Cause baby 

[Chorus:]

Its sunny day 
But you're not around 
That dog gone rain might as well be pouring down 
Its such a shame 
Cause your heart on the ground 
Just wanna be cool with you again 

Sometimes I sit By the fire and reminisce
About the time we spent infront of it 
And that old flame will never be the same 
Until you come back and rekindle it
I just wanna share my heart with you again 
Cause babe 

I fall asleep at night 
And often see you here 
In my dreams 
Holding me 
But then I wake up and I realize that you're 
Not here with me 
It hurts so much 
I gotta have you back babe 

Comments